Pink Floyd Tabs

Keep Talking

4 versions

TAB

            Off the division bell

Intro

Guitar 1
e-3--------------------2-----------------|
B-5--------------------3-----------------|
G-4--------------------2-----------------|
D-5--------------------4-----------------|
A-3--------------------2-----------------|
E----------------------------------------|


Guitar 2
e---------------------------------------------|
B---------------10b12--10b12r10p8-10~b12r10p8-|
G---------------------------------------------|
D---------------------------------------------|
A---------------------------------------------|
E---------------------------------------------|


Guitar 1
e----------------------3---------------------2-|
B----------------------5---------------------3-|
G----------------------4---------------------2-|
D----------------------5---------------------4-|
A----------------------3-----------------------|
E----------------------------------------------|


Guitar 2
e----------7--7/9--10/12-----------14b15-14--|
B--------------------------------------------|
G-10p9p7-------------------------------------|
D--------9-----------------------------------|
A--------------------------------------------|
E--------------------------------------------|


Guitar 1
e-2-------------------------------------3-|
B-3-------------------------------------5-|
G-2-------------------------------------4-|
D-4-------------------------------------5-|
A-2-------------------------------------3-|
E-----------------------------------------|

Guitar 2
e-----------------------------------------|
B-12--------------12----------------------|
G--------------------12----12-12\11-----9-|
D-----------------------------------------|
A-----------------------------------------|
E-----------------------------------------|


Guitar1
e----------------2----------|
B----------------3----------|
G----------------2----------|
D----------------4----------|
A----------------2----------|
E---------------------------|

Guitar 2
e----------------------------------|
B----------------------------------|
G-----12----------9/11------14p11--|
D----------------------------------|
A-5/10-----------------------------|
E----------------------------------|

Guitar 1
e-----3---------------------------2-----------------|
B-----5---------------------------3-----------------|
G-----4---------------------------2-----------------|
D-----5---------------------------4-----------------|
A-----3---------------------------2-----------------|
E-----------------------------------------------12\-|

Guitar 2
e----------------------------------------|
B-------------------12~~--12b15--15~-----|
G-9-11/12~~b14r12------------------------|
D----------------------------------------|
A----------------------------------------|
E----------------------------------------|


Verse

Guitar 1
e-------------------------|
B-------------------------|
G-------------------------|
D-------------------------| This play through the whole song pretty much
A---5-7---7----7--5----7--|   while guitar 2 plays chords.
E-0-----0----0-------7----|


Em
Theres a silence around me

i can't seem to think straight
D/E
i sit in the corner
C/E
and no-one can bother me


Chorus

Em
I think i sould speak now (why won't you talk to me?)

I can't seem to speak now (you never talk to me)
Am
My words won't come out right (what are you thinging?)
Em
I feel like i'm drowning (what are you feeling?)

I'm feeling weak now (why won't you talk to me?)

But i can't show my weakness (you never talk to me)
D/E
I sometimes wonder (what are you thinging?)
C/E                                              Em
Were do we go from here (what are you feeling?)

Bridge
Cmaj7                                            Bm7
It doesn't have to be like this, all we need to do is keep talking

Solo

Guitar 2 (with distortion)
e-------------------------------------------------12--|
B-15-------15-----------------------------12---15b17--|
G-14b16--pb16r14p12-14--14p12-------12----12----------|
D-----------------------------14p12----14-------------|
A-----------------------------------------------------|
E-----------------------------------------------------|

e-12----12--------12--x-----------------------------14----|
B----15b17-----15b17--x--7---------7-----7-7h8------------|
G---------------------x--7--7\4/7--7-----7-7h9----------9-|
D---------------------x--7---------7-9---7-7h9-9-9--------|
A---------------------------------------------------------|
E---------------------------------------------------------|

e--------12---------------------------------------0--------------|
B------12---15b17~----15b17r15p12-------------------3------------|
G-14b16--------------------------14-12~-------2b4-----2p0--------|
D---------------------------------------------------------2p0-2~-|
A----------------------------------------12\---------------------|
E----------------------------------------------------------------|

e-----------------------------------------------------|
B-----3---------0----------7-7h8-------7-7-8p7--8p7---|
G-------0-0--2--0----------7-7h9-------7-7-9p7--9p7-9-|
D--------------------------7-7h9-------7-7-9p7--9p7---|
A-----------------------------------------------------|
E-10\-------------------------------------------------|

e--------------------------------------------------|
B------5--8b10~------------------------------------|
G-7b9---------------7b8r7p5---5~-------------------|
D---------------------------7-----7-(5)------------|
A----------------------------------------5p3p0-----|
E----------------------------------------------3-0-|

e----------------------------------------12---------|
B-------------7------7-7---------0-15b17-----pb17~~-|
G-------------7--(9)-7-7-9~-------------------------|
D---------------------------------------------------|
A-7-7-5-x---x---------------------------------------|
E---------7-----------------------------------------|
 p.m------------------------------------------------|

Synth solo

Guitar 2 (no distortion)
e-0----------------------------0-----------0--------|
B-0----------------------------7-----------5--------|
G-0----------------------------7-----------5--------|
D-2----------------------------7-----------5--------|
A-2----------------------------5-----------3--------|
E-0----------------------------0-----------0--------|

e-0-----------0--------0---------0------------|
B-0--0-0--3-3-0--------0--0--3-3-0------------|
G-0--0-0--2-2-0--------0--0--2-2-0------------|
D-2--2-2------2--------2--2------2------------|
A-2-----------2--------2---------2------------|
E-0-----------0--------0---------0------------|

e-0--0-0----------------------------------------------------0-|
B-1--1-1----------------------------------------0--0-0--3-3-0-|
G-2--2-2----------------------------------------0--0-0--2-2-0-|
D-2--2-2----------------------------------------2--2-2------2-|
A-0--0-0---------------0---0-0--2p0---2p0-------------------2-|
E-----------------------------------3-----3p2p0-------------0-|


Chorus 2
Em
(why won't you talk to me?) I feel like i'm drowning

(you never talk to me) you know i can't breathe now
D/E
(what are you thinging?) were going no-were
C/E
(what are you feeling?) were going no-were

after this part theres a solo on the voice box thing, the guitar plays the chorus 
then the bridge and then finish on Em.

The end    

Added On December 16th, 2013

SHARE

Comments

blog comments powered by Disqus

VERSIONS

ADVERTISEMENT