Pink Floyd Tabs

Lost for Words

5 versions

TAB

            LOST FOR WORDS
From 'The Division Bell'
Music: David Gilmour
Lyrics: Gilmour/Samson

--7(9)---| =Bend up
--(10)9--| =Bend, then play note & release
--4(5)4--| =Bend up & back
--8/10---| =Slide up
--9V7----| =Slide down
--0>2----| =Hammer on

Intro (gtrs 1&2):
               F               C                 F
e-----------vv---------------v-----------------v---------------v--|
B-----------vv---------------v-----------------v---------------v--|
G--------0--vv-0>2---2-2--0--v--------------0--v-0>2---2-2--0--v--|
D----0>2----vv---------------v-0>2------0>2----v---------------v--|
A-3---------vv---------------v-------3---------v---------------v--|
E-----------vv---------------v-----------------v---------------v--|

  C                 F               Am      G               F      C
e-----------------v---------------v-------v---------------v----------------|vv
B-----------------v---------------v-------v---------------v----------------|vv
G--------------0--v-0>2---2-2--0--v-------v---------------v------------0---|vv
D-0>2------0>2----v---------------v-2-----v-0---0>2-0-----v--------0>2-----|vv
A-------3---------v---------------v-------v------------3--v-0---3----------|vv
E-----------------v---------------v-------v---------------v----------------|vv

Solo 1 (gtr 1 continues intro fig.):

  F                        C           F
e------------------------v-----------v------------------------v--|
B-------8----------------v-----------v-0-1-1--1---------------v--|
G---7/9----9V7-5--7-5----v-5--7(9)---v-0-2-2--2--0----0-------v--|
D---------------------7--v-----------v---3-3--3----3--0--0>2--v--|
A------------------------v-----------v------------------------v--|
E------------------------v-----------v------------------------v--|

  C                 F                       Am
e------------8-7--v-----------------------v-------------v--|
B----------8------v-8/10--8---------------v-------------v--|
G------7/9--------v---------9V7-5--7-5----v-5--7(9)-5---v--|
D-2---------------v--------------------7--v-------------v--|
A-3---------------v-----------------------v-------------v--|
E-----------------v-----------------------v-------------v--|

  G                   F                         F    C
e-------------------v-------------------------v-----------v--|
B-------------------v-------------------------v-----------v--|
G-4(5)4-------------v-------------------------v-----------v--|
D-------5-5------5--v-5/7--5--5---------------v-----------v--|
A------------5/7----v-----------7V5-3--5-3-0--v-3---------v--|
E-------------------v-------------------------v-----------v--|
                                                     I was...

      F                       C
I was spending my time in the doldrums
      F                       C
I was caught in a cauldron of hate
       F              Am
I felt persecuted and paralysed
               G                          F
I thought that everything else would just wait

While you are wasting your time on your enemies
Engulfed in a fever of spite
Beyond your tunnel vision reality fades
Like shadows into the night

To martyr yourself to caution
Is not going to help at all
Because there'll be no safety in numbers
When the Right One walks out of the door


D  F  Bb  Am  Bb  Dm  F  D

        C                         G
Can you see your days blighted by darkness?
      C                               G
Is it true you beat your fists on the floor?
C                      Em
Stuck in a world of isolation
          D                  C
While the ivy grows over the door

So I open my doors to my enemies
And I ask could we wipe the slate clean
But the tell me please go fuck myself
You know you just can't win

Solo 2:
           C                G                   C
e--------v----------------v-------------------v------------------------v-|
B--------v----------------v-------------------v--------------3--3--3-5-v-|
G--------v----------------v-------------------v-2/4--0---2/4-----------v-|
D------5-v-5/7--5-------5-v--------------2----v------------------------v-|
A--5/7---v----------5/7---v-5/7--5---2/5----3-v------------------------v-|
E--------v----------------v-------------------v------------------------v-|

  G                C                   Em
e----------------v-------------------v-------------v-|
B-3----------8-7-v-------------------v-------------v-|
G----------7-----v-9---7-7--9--------v-------------v-|
D------7/9-------v-------------9V7-5-v-7/9-5--5--7-v-|
A----------------v-------------------v-------------v-|
E----------------v-------------------v-------------v-|

  D                          C              C
e--------------------------v--------------v----3/5-5--3-------v-|
B--------------------------v--------------v----3/5-5--3--3/5--v-|
G--------------------------v--------------v--------------2/4--v-|
D-4--4>5-5/7---5--4--2--0--v--------------v-------------------v-|
A--------------------------v-3--3--2------v-------------------v-|
E--------------------------v----------3---v-------------------v-|

  G            C                              G
e------------v------------10--10------------v-----12-12--v-|
B-3--3/5-5---v-------8/10---------12V10-8---v-8----------v-|
G-2--2/4-4---v---7/9----------------------9-v------------v-|
D------------v------------------------------v------------v-|
A------------v------------------------------v------------v-|
E------------v------------------------------v------------v-|

  C                       Em                       D
e-12(13)12--------------v------------------------v----------------------v-|
B----------13-13--------v-10/12--12V10-10-8-8-7(8v)7--------------------v-|
G-----------------12-12-v------------------------v---7-7--------(10)9-7-v-|
D-----------------------v------------------------v-------7>9-7----------v-|
A-----------------------v------------------------v----------------------v-|
E-----------------------v------------------------v----------------------v-|

  C                      C            C
e----------------------v------------v------------------------v-|
B----------------------v------------v------------------------v-|
G-9--7--7--------------v------------v--------7---------------v-|
D---------9V7-5--7-5---v-5--------5-v-5--7/9----9V7-5--7-5---v-|
A--------------------7-v------5/7---v----------------------7-v-|
E----------------------v------------v------------------------v-|

  G                 C                       G
e-----------------v-----------------------v----------------------------v-|
B----------------8v--10-8---12(13)-(13)12-v-12(13)-12/13V12--10V8--8V7-v-|
G--------7---7/9--v-----------------------v----------------------------v-|
D-5--7/9----------v-----------------------v----------------------------v-|
A-----------------v-----------------------v----------------------------v-|
E-----------------v-----------------------v----------------------------v-|

  C             Em                    D
e-------------v---------------------v---------------------v-|
B-------------v---------------------v---------------------v-|
G-9---7-------v-------------7-------v---------------------v-|
D-------9V7-5-v-5-5---7-7/9---9V7-5-v-5/7-7--7/9-7--5--4--v-|
A-------------v---------------------v---------------------v-|
E-------------v---------------------v---------------------v-|

  C                   C           G                  C            G
e-------------------v-----------v------------------v------------v--------|
B-------------------v-----------v------------------v------------v--------|
G-------------------v-----------v------------------v------------v--------|
D-4>5--4--2--0------v-----------v------------------v------------v--------|
A---------------2-0-v-----2/3-2-v-0----------5-5---v-7--7-5-5---v-5------|
E-------------------v-3---------v----3---5/7-----7-v----------7-v--------|

Transcribed by Mikko Laaninen    

Added On December 16th, 2013

SHARE

Comments

blog comments powered by Disqus

VERSIONS

ADVERTISEMENT