Pink Floyd Tabs

One of the few

2 versions

TAB

            Song Name: One Of The Few
Artist: Pink Floyd
Album: The Final Cut

e|------6---6---5---5---3---3------------8---8---6---6---3---3---------|
B|------------3---3---3---3---6\3-3-3------------------3---3---6\3-3-3-|
G|----7---7----------------------------7---7---7---7-------------------|
D|-0--0-------0-------0---------0------0-------0-------0---------0-----|
A|---------------------------------------------------------------------|
E|---------------------------------------------------------------------|

e|---6---6---5---5---3---3----------------8---8---6---6---3---3-------------|
B|---------3---3---3---3---6\3---3---3------------------3---3---6\3---3---3-|
G|-7---7--------------------------------7---7---7---7-----------------------|
D|-0-------0-------0---------0-0---0----0-------0-------0---------0-0---0---|
A|--------------------------------------------------------------------------|
E|--------------------------------------------------------------------------|

e|---6---6---5---5---3---3-----------------8---8---6---6---3---3-------|
B|---------3---3---3---3---6\3---3---5-6-----------------3---3---6\3-3-|
G|-7---7---------------------------------7---7---7---7-----------------|
D|-0-------0-------0---------0-0---0-----0-------0-------0---------0---|
A|---------------------------------------------------------------------|
E|---------------------------------------------------------------------|    

Added On December 16th, 2013

SHARE

Comments

blog comments powered by Disqus

VERSIONS

ADVERTISEMENT