Pixies Tabs

Brick Is Red

7 versions

TAB

            Brick Is Red Tab by Pixies


Intro
guitar 1		  Em Am Em  repeat2x 3rd time end with Am Dm Am.
e-------------------------------------------------------------------------------------|
b-------------------------------------------------------------------------------------|
g------0-2-0-333-33-2-0---------------------------------------------------------------|
d-------------------------------------------------------------------------------------|
a-------------------------------------------------------------------------------------|
e-------------------------------------------------------------------------------------|

Repeat  the riff, ending with Em Am Em, then again ending with G Am Em, then it goes into the verse.

Guitar 2
e-------------0-00000--------------12---------12---------------------------------------|
b-------------4B55555etc-------------12-----------12-----------------------------------|
g------0-2-0-----------------14B16------14B16--------14B16\\\slidedown-----------------|
d--------------------------------------------------------------------------------------|
a--------------------------------------------------------------------------------------|
e--------------------------------------------------------------------------------------|


play this over the Am Dm Am part   and this over the G Am Em part

e-----8-7-5---------------------------------------------------------------------------|
b-----------8---7-6-5\\\---------88-7-8--7-8-7-1010-9-10-9-1010\\---------------------|
g-------------------------------------------------------------------------------------|
d-------------------------------------------------------------------------------------|
a-------------------------------------------------------------------------------------|
e-------------------------------------------------------------------------------------|

   bending the "3" just a bit
e-------------------------------------------------------------------------------------|
b-------------------------------------------------------------------------------------|
g------0-2-0-333-333etc-2-0-----------------------------------------------------------|
d-------------------------------------------------------------------------------------|
a-------------------------------------------------------------------------------------|
e-------------------------------------------------------------------------------------|

Verse
Guitar 1 :chords Em Am Em Am G C G C 2x
			   Bm C Am C

Guitar 2 :
							     Repeat then end with:
e---------------------------17-15-----------------------------------------------------|
b---12---------12-----------------17-15-12-10---------10------------------------------|
g---15B16~~~---15B16~~~~----------------------12-9--9----12----11-12--12-14-----------|
d-------------------------------------------------12----------------------------------|
a-------------------------------------------------------------------------------------|
e-------------------------------------------------------------------------------------|

chorus
Guitar 1 : G Am C (C7 if u want)
	   G Am Em

Guitar 2 : is just playing the roots of these chords, h is for harmonic

e--------------------------------------------------------------------------------------|
b--------------------------------------------------------------------------------------|
g--------------------------(3)---(3)--(3)----------------------------------------------|
d-----------------------------------------------------------------------h12------------|
a--10-10-10-10-12-12-12-12-3-3-3-3-3-3-3-3-10-10-10-10-12-12-12-12---------------------|
e-------------------------------------------------------------------h12----------------|

with all this the transitions and ending should be a breeze to put together.. its all 
same stuff i've tabbed out
u just gotta put it into the right order.

tabbed by ear,
sasha    

Added On December 5th, 2013

SHARE

Comments

blog comments powered by Disqus