Plain White Ts Tabs

Fireworks

2 versions

TAB

            Fireworks Tab by Plain White Ts


(Intro Solo Thingy)
E----------------------------------------------------------------
B-7--5-----5--7--5----7--5----5-----------7--5-------------------
G-------7----------7-------7-----6-6-6-6-------7------(Repeat)---
D----------------------------------------------------------------
A----------------------------------------------------------------
E----------------------------------------------------------------


Verse/Chorus (you can figure out the strum pattern)
  (D)     (A)      (G)    (A)
E--5-------5--------3------5-------------------------------------
B--6-------5--------3------5-------------------------------------
G--7-------6--------4------6------------(repeat)-----------------
D--7-------7--------5------7-------------------------------------
A--5-------7--------5------7-------------------------------------
E--5-------5--------3------5-------------------------------------

Bridge
     (Bminor)   (G)     (D)   (A)
E-------2--------3-------5-----5---------------------------------
B-------3--------3-------6-----5---------------------------------
G-------4--------4-------7-----6---------------------------------
D-------4--------5-------7-----7---------------------------------
A-------2--------5-------5-----7---------------------------------
E-------2--------3-------5-----5---------------------------------


Repeat Verses and Chorus and Go back to bridge but this time through a Bflat in
Bridge
     (Bminor)   (G)     (D)   (A)   (Bflat)
E-------2--------3-------5-----5-------1-------------------------
B-------3--------3-------6-----5-------3-------------------------
G-------4--------4-------7-----6-------3-------------------------
D-------4--------5-------7-----7-------3-------------------------
A-------2--------5-------5-----7-------1-------------------------
E-------2--------3-------5-----5-------x-------------------------

then return to solo thingie

(Intro Solo Thingy)
E----------------------------------------------------------------
B-7--5-----5--7--5----7--5----5-----------7--5-------------------
G-------7----------7-------7-----6-6-6-6-------7------(Repeat)---
D----------------------------------------------------------------
A----------------------------------------------------------------
E----------------------------------------------------------------

(Hope this works for ya. it's really an awesome song)    

Added On December 5th, 2013

SHARE

Comments

blog comments powered by Disqus

VERSIONS

ADVERTISEMENT