Plain White Ts Tabs

Hey There Delilah

12 versions

TAB

            Hey There Delilah Tab by Plain White Ts


I am certain this tab is 100% accurate

Standard tuning

  D    D     D     D      F#   F#    F#    F#
----2-----2-----2-----2---------------------------|
----3-----3-----3-----3-----7-----7-----7-----7---|
----2-----2-----2-----2-----6-----6-----6-----6---|
-0-----0-----0-----0--------4-----4-----4-----4---|
-------------------------4-----4-----4-----4------|
--------------------------------------------------|

  D    D     D     D      F#   F#    F#    F#
----2-----2-----2-----2---------------------------|
----3-----3-----3-----3-----7-----7-----7-----7---|
----2-----2-----2-----2-----6-----6-----6-----6---|
-0-----0-----0-----0--------4-----4-----4-----4---|
-------------------------4-----4-----4-----4------|
--------------------------------------------------|

  D    D     D     D            F#    F#    F#    F#
----2-----2-----2-----2---------------------------------|
----3-----3-----3-----3-----------7-----7-----7-----7---|
----2-----2-----2-----2-----------6-----6-----6-----6---|
-0-----0-----0-----0--------------4-----4-----4-----4---|
-------------------------------4-----4-----4-----4------|
--------------------------------------------------------|
Hey there Delilah, what's it like in New York City Im a

  D    D     D     D            F#   F#    F#    F#
----2-----2-----2-----2----------------------------------|
----3-----3-----3-----3-----------7-----7-----7-----7----|
----2-----2-----2-----2-----------6-----6-----6-----6----|
-0-----0-----0-----0--------------4-----4-----4-----4----|
-------------------------------4-----4-----4-----4-------|
---------------------------------------------------------|
thousand miles away but girl tonight you look so pretty yes you do

 Bm    Bm    Bm     A          G     G      A       A
----2-----2-----2----------------------------------------|
----3-----3-----3-----------------3-----3-----2-----2----|
----4-----4-----4-----------------4-----4-----2-----2----|
----4-----4-----4-----------------5-----5-----2-----2----|
-2-----2-----2------0--(hold)--------------0-----0-------|
-------------------------------3-----3-------------------|
oooo                         Time Square can't shine as bright as you

 Bm    Bm    Bm    Bm    A     A     A     A
----2-----2-----2-----2----------------------------|
----3-----3-----3-----3-----2-----2-----10----10---|
----4-----4-----4-----4-----2-----2-----9-----9----|
----4-----4-----4-----4-----2-----2-----7-----7----|
-2-----2-----2-----2-----0-----0-----0-----0-------|
---------------------------------------------------|
ooooouu  I swear it's true

 D    D     D     D      F#   F#    F#    F#
----2-----2-----2-----2-------------------------------|
----3-----3-----3-----3---------7-----7-----7-----7---|
----2-----2-----2-----2---------6-----6-----6-----6---|
-0-----0-----0-----0------------4-----4-----4-----4---|
-----------------------------4-----4-----4-----4------|
------------------------------------------------------|
Hey there Delilah don't you worry bout the distance I'm right there

 D    D     D     D      F#   F#    F#    F#
----2-----2-----2-----2-------------------------------|
----3-----3-----3-----3---------7-----7-----7-----7---|
----2-----2-----2-----2---------6-----6-----6-----6---|
-0-----0-----0-----0------------4-----4-----4-----4---|
-----------------------------4-----4-----4-----4------|
------------------------------------------------------|
if you get lonely, give this song another listen close your

 Bm    Bm    Bm     A          G     G      A       A
----2-----2-----2-------------------------------------------|
----3-----3-----3-----------------3-----3-------2------2----|
----4-----4-----4-----------------4-----4-------2------2----|
----4-----4-----4-----------------5-----5-------2------2----|
-2-----2-----2------0--(hold)---------------0-------0-------|
-------------------------------3-----3----------------------|
eyes                           listen to my voice it's my disguise

 Bm    Bm    Bm    Bm    A     A     A     A
----2-----2-----2-----2----------------------------|
----3-----3-----3-----3-----2-----2-----10----10---|
----4-----4-----4-----4-----2-----2-----9-----9----|
----4-----4-----4-----4-----2-----2-----7-----7----|
-2-----2-----2-----2-----0-----0-----0-----0-------|
---------------------------------------------------|
I'm by your side

 D     D     D     A    Bm    Bm    Bm     F#
----2-----2-----2-----------2-----2-----2---------|
----3-----3-----3-----2-----3-----3-----3-----7---|
----2-----2-----2-----2-----4-----4-----4-----6---|
-0-----0-----0--------2-----4-----4-----4-----4---|
-------------------0-----2-----2-----2-----4------|
--------------------------------------------------|
oohhh its what you do to meee

 D     D     D     A    Bm    Bm    Bm     F#
----2-----2-----2-----------2-----2-----2-----------|
----3-----3-----3-----2-----3-----3-----3-----7-----|
----2-----2-----2-----2-----4-----4-----4-----6-----|
-0-----0-----0--------2-----4-----4-----4-----4-----|
-------------------0-----2-----2-----2-----4--------|
----------------------------------------------------|
oohhh its what you do to meee

 D     D     D     A    Bm    Bm    Bm     F#
----2-----2-----2-----------2-----2-----2-----------|
----3-----3-----3-----2-----3-----3-----3-----7-----|
----2-----2-----2-----2-----4-----4-----4-----6-----|
-0-----0-----0--------2-----4-----4-----4-----4-----|
-------------------0-----2-----2-----2-----4--------|
----------------------------------------------------|
oohhh its what you do to meee

 D     D     D     A    Bm    Bm    Bm     D
----2-----2-----2-----------2-----2-----2-----2---|
----3-----3-----3-----2-----3-----3-----3-----3---|
----2-----2-----2-----2-----4-----4-----4-----2---|
-0-----0-----0--------2-----4-----4-----4---------|
-------------------0-----2-----2-----2-----0------|
--------------------------------------------------|
oohhh its what you do to me what you do to me

  D    D     D     D          F#    F#    F#    F#
----2-----2-----2-----2--------------------------------|
----3-----3-----3-----3----------7-----7-----7-----7---|
----2-----2-----2-----2----------6-----6-----6-----6---|
-0-----0-----0-----0-------------4-----4-----4-----4---|
------------------------------4-----4-----4-----4------|
-------------------------------------------------------|
Hey there Delilah i know times are getting hard but just believe

  D    D     D     D         F#    F#    F#    F#
----2-----2-----2-----2-------------------------------|
----3-----3-----3-----3---------7-----7-----7-----7---|
----2-----2-----2-----2---------6-----6-----6-----6---|
-0-----0-----0-----0------------4-----4-----4-----4---|
-----------------------------4-----4-----4-----4------|
------------------------------------------------------|
me girl someday I'll pay the bill with this guitar we'll have it

 Bm    Bm    Bm     A          G     G      A       A
----2-----2-----2-------------------------------------------|
----3-----3-----3-----------------3-----3-------2------2----|
----4-----4-----4-----------------4-----4-------2------2----|
----4-----4-----4-----------------5-----5-------2------2----|
-2-----2-----2------0--(hold)---------------0-------0-------|
-------------------------------3-----3----------------------|
good                           we'll have the life we knew we would

 Bm    Bm    Bm    Bm    A     A     A     A
----2-----2-----2-----2----------------------------|
----3-----3-----3-----3-----2-----2-----10----10---|
----4-----4-----4-----4-----2-----2-----9-----9----|
----4-----4-----4-----4-----2-----2-----7-----7----|
-2-----2-----2-----2-----0-----0-----0-----0-------|
---------------------------------------------------|
my word is good

  D    D     D     D         F#    F#    F#    F#
----2-----2-----2-----2-------------------------------|
----3-----3-----3-----3---------7-----7-----7-----7---|
----2-----2-----2-----2---------6-----6-----6-----6---|
-0-----0-----0-----0------------4-----4-----4-----4---|
-----------------------------4-----4-----4-----4------|
------------------------------------------------------|
Hey there Delilah I've got so much left to say If every

  D    D     D     D         F#    F#    F#    F#
----2-----2-----2-----2-------------------------------|
----3-----3-----3-----3---------7-----7-----7-----7---|
----2-----2-----2-----2---------6-----6-----6-----6---|
-0-----0-----0-----0------------4-----4-----4-----4---|
-----------------------------4-----4-----4-----4------|
------------------------------------------------------|
simple song I wrote to you would take your breathe away I'd write

 Bm    Bm    Bm     A          G     G      A       A
----2-----2-----2-------------------------------------------|
----3-----3-----3-----------------3-----3-------2------2----|
----4-----4-----4-----------------4-----4-------2------2----|
----4-----4-----4-----------------5-----5-------2------2----|
-2-----2-----2------0--(hold)---------------0-------0-------|
-------------------------------3-----3----------------------|
it all                         Even more in love with me you'd fall

 Bm    Bm    Bm    Bm    A     A     A     A
----2-----2-----2-----2----------------------------|
----3-----3-----3-----3-----2-----2-----10----10---|
----4-----4-----4-----4-----2-----2-----9-----9----|
----4-----4-----4-----4-----2-----2-----7-----7----|
-2-----2-----2-----2-----0-----0-----0-----0-------|
---------------------------------------------------|
We'd have it all

 D     D     D     A    Bm    Bm    Bm     F#
----2-----2-----2-----------2-----2-----2-----------|
----3-----3-----3-----2-----3-----3-----3-----7-----|
----2-----2-----2-----2-----4-----4-----4-----6-----|
-0-----0-----0--------2-----4-----4-----4-----4-----|
-------------------0-----2-----2-----2-----4--------|
----------------------------------------------------|
oohhh its what you do to meee

 D     D     D     A    Bm    Bm    Bm     F#
----2-----2-----2-----------2-----2-----2-----------|
----3-----3-----3-----2-----3-----3-----3-----7-----|
----2-----2-----2-----2-----4-----4-----4-----6-----|
-0-----0-----0--------2-----4-----4-----4-----4-----|
-------------------0-----2-----2-----2-----4--------|
----------------------------------------------------|
oohhh its what you do to meee

 D     D     D     A    Bm    Bm    Bm     F#
----2-----2-----2-----------2-----2-----2-----------|
----3-----3-----3-----2-----3-----3-----3-----7-----|
----2-----2-----2-----2-----4-----4-----4-----6-----|
-0-----0-----0--------2-----4-----4-----4-----4-----|
-------------------0-----2-----2-----2-----4--------|
----------------------------------------------------|
oohhh its what you do to meee

 D     D     D     A    Bm    Bm    Bm     F#
----2-----2-----2-----------2-----2-----2-----------|
----3-----3-----3-----2-----3-----3-----3-----7-----|
----2-----2-----2-----2-----4-----4-----4-----6-----|
-0-----0-----0--------2-----4-----4-----4-----4-----|
-------------------0-----2-----2-----2-----4--------|
----------------------------------------------------|
oohhh its what you do to meee

 G     G     G     G              A     A     A     A
-----------------------------------------------------------|
----3-----3-----3-----3--------------2-----2-----2-----2---|
----4-----4-----4-----4--------------2-----2-----2-----2---|
----5-----5-----5-----5--------------2-----2-----2-----2---|
----------------------------------0-----0-----0-----0------|
-3-----3-----3-----3---------------------------------------|
A thousand miles seems pretty far But they've got planes and trains and cars

 A     A     A     F# Bm    Bm    Bm    Bm
----2-----2-----2---------2-----2-----2-----2---|
----3-----3-----3---------3-----3-----3-----3---|
----2-----2-----2---------4-----4-----4-----4---|
-0-----0-----0------------4-----4-----4-----4---|
-------------------4---2-----2-----2-----2------|
------------------------------------------------|
I'd walk to you if I had no other way

G     G     G     G              A     A     A     A
--------------------------------------------------------------|
----3-----3-----3-----3-----------------2-----2-----2-----2---|
----4-----4-----4-----4-----------------2-----2-----2-----2---|
----5-----5-----5-----5-----------------2-----2-----2-----2---|
-------------------------------------0-----0-----0-----0------|
-3-----3-----3-----3------------------------------------------|
Our friends would all make fun of us and we'll just laugh along because

 A     A     A     F# Bm    Bm    Bm    Bm
----2-----2-----2---------2-----2-----2-----2---|
----3-----3-----3---------3-----3-----3-----3---|
----2-----2-----2---------4-----4-----4-----4---|
-0-----0-----0------------4-----4-----4-----4---|
-------------------4---2-----2-----2-----2------|
------------------------------------------------|
we know that none of them have this way

G     G     G     G              A     A     A     A
--------------------------------------------------------------|
----3-----3-----3-----3-----------------2-----2-----2-----2---|
----4-----4-----4-----4-----------------2-----2-----2-----2---|
----5-----5-----5-----5-----------------2-----2-----2-----2---|
-------------------------------------0-----0-----0-----0------|
-3-----3-----3-----3------------------------------------------|
Delilah I can promise you that by the time we get through

 Bm    Bm    Bm   Bm    Bm    Bm    Bm    Bm
----2-----2-----2-----2-----2-----2-----2-----2---|
----3-----3-----3-----3-----3-----3-----3-----3---|
----4-----4-----4-----4-----4-----4-----4-----4---|
----4-----4-----4-----4-----4-----4-----4-----4---|
-2-----2-----2-----2-----2-----2-----2-----2------|
The world will never ever be the same

 A     A     A     A     A     A     A     A
--------------------------------------------------|
----2-----2-----2-----2-----10----10----10----10--|
----2-----2-----2-----2-----9-----9-----9-----9---|
----2-----2-----2-----2-----7-----7-----7-----7---|
-0-----0-----0-----0-----0-----0-----0-----0------|
--------------------------------------------------|
and you're to blame

 D    D     D     D      F#   F#    F#    F#
----2-----2-----2-----2---------------------------|
----3-----3-----3-----3-----7-----7-----7-----7---|
----2-----2-----2-----2-----6-----6-----6-----6---|
-0-----0-----0-----0--------4-----4-----4-----4---|
-------------------------4-----4-----4-----4------|
--------------------------------------------------|
Hey there Delilah you be good and don't you miss me two more years

 D    D     D     D      F#   F#    F#    F#
----2-----2-----2-----2---------------------------|
----3-----3-----3-----3-----7-----7-----7-----7---|
----2-----2-----2-----2-----6-----6-----6-----6---|
-0-----0-----0-----0--------4-----4-----4-----4---|
-------------------------4-----4-----4-----4------|
--------------------------------------------------|
and you'll be done with school and I'll be making history

 Bm    Bm    Bm     A          G     G      A       A
----2-----2-----2-------------------------------------------|
----3-----3-----3-----------------3-----3-------2------2----|
----4-----4-----4-----------------4-----4-------2------2----|
----4-----4-----4-----------------5-----5-------2------2----|
-2-----2-----2------0--(hold)---------------0-------0-------|
-------------------------------3-----3----------------------|
like i do                    you know it's all because of you

 Bm    Bm    Bm    Bm    A     A     A     A
----2-----2-----2-------------------------------------------|
----3-----3-----3-----------------3-----3-------2------2----|
----4-----4-----4-----------------4-----4-------2------2----|
----4-----4-----4-----------------5-----5-------2------2----|
-2-----2-----2------0--(hold)---------------0-------0-------|
-------------------------------3-----3----------------------|
                              We can do whatever we want to

 Bm    Bm    Bm     A          G     G      A       A
----2-----2-----2-------------------------------------------|
----3-----3-----3-----------------3-----3-------2------2----|
----4-----4-----4-----------------4-----4-------2------2----|
----4-----4-----4-----------------5-----5-------2------2----|
-2-----2-----2------0--(hold)---------------0-------0-------|
-------------------------------3-----3----------------------|
                           Hey there Delilah here's to you

 Bm    Bm    Bm    Bm    A     A     A     A
----2-----2-----2-----2----------------------------|
----3-----3-----3-----3-----2-----2-----10----10---|
----4-----4-----4-----4-----2-----2-----9-----9----|
----4-----4-----4-----4-----2-----2-----7-----7----|
-2-----2-----2-----2-----0-----0-----0-----0-------|
---------------------------------------------------|
this one's for you

D     D     D     A    Bm    Bm    Bm     F#
----2-----2-----2-----------2-----2-----2---------|
----3-----3-----3-----2-----3-----3-----3-----7---|
----2-----2-----2-----2-----4-----4-----4-----6---|
-0-----0-----0--------2-----4-----4-----4-----4---|
-------------------0-----2-----2-----2-----4------|
--------------------------------------------------|
oohhh its what you do to meee

 D     D     D     A    Bm    Bm    Bm     F#
----2-----2-----2-----------2-----2-----2-----------|
----3-----3-----3-----2-----3-----3-----3-----7-----|
----2-----2-----2-----2-----4-----4-----4-----6-----|
-0-----0-----0--------2-----4-----4-----4-----4-----|
-------------------0-----2-----2-----2-----4--------|
----------------------------------------------------|
oohhh its what you do to meee

 D     D     D     A    Bm    Bm    Bm     F#
----2-----2-----2-----------2-----2-----2-----------|
----3-----3-----3-----2-----3-----3-----3-----7-----|
----2-----2-----2-----2-----4-----4-----4-----6-----|
-0-----0-----0--------2-----4-----4-----4-----4-----|
-------------------0-----2-----2-----2-----4--------|
----------------------------------------------------|
oohhh its what you do to meee

 D     D     D     A    Bm    Bm    Bm     D
----2-----2-----2-----------2-----2-----2-----2---|
----3-----3-----3-----2-----3-----3-----3-----3---|
----2-----2-----2-----2-----4-----4-----4-----2---|
-0-----0-----0--------2-----4-----4-----4---------|
-------------------0-----2-----2-----2-----0------|
--------------------------------------------------|
oohhh its what you do to me what you do to me  D     D     D     A    Bm    Bm    Bm     F#
----2-----2-----2-----------2-----2-----2---------|
----3-----3-----3-----2-----3-----3-----3-----7---|
----2-----2-----2-----2-----4-----4-----4-----6---|
-0-----0-----0--------2-----4-----4-----4-----4---|
-------------------0-----2-----2-----2-----4------|
--------------------------------------------------|
oohhhhhhhhhhhhhhhhhhhhhhhhhhhhhhhhhhhh

 D     D     D     A    Bm    Bm    Bm     F#
----2-----2-----2-----------2-----2-----2-----------|
----3-----3-----3-----2-----3-----3-----3-----7-----|
----2-----2-----2-----2-----4-----4-----4-----6-----|
-0-----0-----0--------2-----4-----4-----4-----4-----|
-------------------0-----2-----2-----2-----4--------|
----------------------------------------------------|
oohhhhhhhhhhhhhhhhhhhhhhhhhhhhhhhhhhhhhhhhhhhhhhh
 D     D     D     A    Bm    Bm    Bm     F#
----2-----2-----2-----------2-----2-----2-----------|
----3-----3-----3-----2-----3-----3-----3-----7-----|
----2-----2-----2-----2-----4-----4-----4-----6-----|
-0-----0-----0--------2-----4-----4-----4-----4-----|
-------------------0-----2-----2-----2-----4--------|
----------------------------------------------------|
oohhhhhhhhhhhhhhhhhhhhhhhhhhhhhhhhhhhhhhhh

 D     D     D     A    Bm    Bm    Bm     D
----2-----2-----2-----------2-----2-----2-------2----|
----3-----3-----3-----2-----3-----3-----3-------3----|
----2-----2-----2-----2-----4-----4-----4-------2----|
-0-----0-----0--------2-----4-----4-----4-------0----|
-------------------0-----2-----2-----2-----0---------|(strum)
-----------------------------------------------------|
oohhhhhhhhhhhhhhhhhhhhhhhhhhhhhhhhhhhhhh    

Added On December 5th, 2013

SHARE

Comments

blog comments powered by Disqus