Planet Smashers Tabs

Holiday

1 versions

TAB

            Holiday Tab by Planet Smashers


-------------------------------------------------------------------------------
                    Holiday - Planet Smashers
-------------------------------------------------------------------------------
Tabbed by: Andy Heidt
Email: andythecripple@hotmail.com

Tuning: standard

Whole song. seriously.                     
|-7---5---7-------|
|-7---5---9-------|
|-8---6---9-------|
|-9---7---9-------|
|-9---7---7-------|
|-7---5---7-------|
  B   A   E            

Very quiet riff in bridge
(might not be right, you can barely hear it)		 
|------------------------------|  
|------------------------------|  
|------------------9--8-8-9----|  
|----9------7----------------9-|  
|---------------7--------------|  
|-7----7-5----5----------------|
  B      A      E          


A girl I met from Quebec city thought my accent was cute say
I was looking pretty said she likes Grim Skunk,
So we hit it off
Seemed like love till the buzz wore off 

Holiday, away from you

Oh I know it's getting really scary the situation with this girl is getting kinda hairy
She's bitchin, she's hollering, Screaming in my ear
while I'm sittin around with my hands down my pants

Holiday, Away from you

A girl I met from Quebec city thought my accent was cute say
I was looking pretty said she likes Grim Skunk,
So we hit it off mais une nuit ca suffit, one night was enough

Now I'm gone can't get her off my mind I find myself thinking about her
All the time the separation between us doesn't feel quite right
Oh je me souviens gotta get on with my life
-------------------------------------------------------------------------------    

Added On December 5th, 2013

SHARE

Comments

blog comments powered by Disqus

ADVERTISEMENT