Poets Of The Fall Tabs

Maybe Tomorrow Is A Better Day

2 versions

TAB

            Maybe Tomorrow Is A Better Day Tab by Poets Of The Fall


-----------------------------------------------------------------
MAYBE TOMORROW IS A BETTER DAY - Poets of the Fall
-----------------------------------------------------------------
Tabbed by: Fabba
Email: andreoszwald@hotmail.com

Tuning: Standard EADGBe

Order:

[INTRO:]

  1x Intro
  2x Verse
  1x Intro

[VERSE:]

  2x Verse
  2x Intro
  1x Bridge
...Dunno. Verse Riff. In the beginning. Not all of the song has guitar.         Listen to it :-P

[CHORUS]

Chorus Riff ... listen to the song to figure out how often. It varies towards the end.

[VERSE]

[CHORUS]

[BRIDGE]

  Play Brigde riff 1x

[CHORUS]

(often)


Intro:

(Listen to the song for the rythm, it's too much work to tab)
e|--0--0--0--0--0--0---0--0---0--0--0---0--0--0--0--0--0---0--0---0--0--0--|
B|--0--0--0--0--0--0---0--0---0--0--0---0--0--0--0--0--0---0--0---0--0--0--|
G|--14-14-14\12-12-12-\11-11--9--9--9---14-14-14\12-12-12-\11-11--9--9--9--|
D|--14-14-14-14-14-14-\12-12--11-11-11--14-14-14-14-14-14-\12-12--11-11-11-|
A|-------------------------------------------------------------------------|
E|-------------------------------------------------------------------------|

Verse:

e|--0--0--0--0--0--0---0--0--0--0--0----0--0--0--0--0--0---0--0--0--0--0---|
B|--0--0--0--0--0--0---0--0--0--0--0----0--0--0--0--0--0---0--0--0--0--0---|
G|--12-12-12\11-11-11--11-11-9--9--9----12-12-12\11-11-11--11-11-9--9--9---|
D|--14-14-14-14-14-14--12-12-11-11-11---14-14-14-14-14-14--12-12-11-11-11--|
A|-------------------------------------------------------------------------|
E|-------------------------------------------------------------------------|

CHORUS:
       pm   pm   pm   pm   pm   pm             pm....             pm....
e|-----------------------------------------------------------------------|
B|-----------------------------------------------------------------------|
G|-----------------------------------------------------------------------|
D|---5-55-5-55-5-55-3-33-3-33-3-33-5/7-7--5/7-7-7-7-7-5/7-7--5/7-7-7-7-7-|
A|---5-55-5-55-5-55-3-33-3-33-3-33-5/7-7--5/7-7-5-5-5-5/7-7--5/7-7-7-7-7-|
E|---3-33-3-33-3-33-1-11-1-11-1-11-3/5-5--3/5-5-5-5-5-3/5-5--3/5-5-5-5-5-|

BRIDGE:

e|------------0-0-0--5-5-5--3-3-3------------0-0-0--3-3-3--0-0-0---------|
B|--10-10-10--6-6-6--5-5-5--3-3-3--10-10-10--6-6-6--5-5-5--1-1-1---------|
G|--10-10-10--7-7-7--5-5-5--5-5-5--10-10-10--7-7-7--5-5-5--2-2-2---------|
D|--10-10-10--7-7-7--5-5-5--5-5-5--10-10-10--7-7-7--5-5-5--2-2-2---------|
A|--8--8--8---5-5-5--7-7-7--3-3-3--8--8--8---5-5-5--3-3-3--0-0-0---------|
E|-------------------5-5-5--3-3-3----------------------------------------|    

Added On December 5th, 2013

SHARE

Comments

blog comments powered by Disqus

VERSIONS

ADVERTISEMENT