Poison The Well Tabs

My Mirror No Longer Reflects

5 versions

TAB

            My Mirror No Longer Reflects Tab by Poison The Well


Poison the Well
My Mirror No Longer Reflects

All of these poison the well tabs on this site are amateur
tabbers... here's the real stuff.

First of all, Poison the Well never plays standard, it's
always one full step down.

Part 1 (Play several times)
D|---------------------------------------------------------|
A|---------------------------------------------------------|
F|-8--8--x--8--8---8---------------------------------------|
C|-6--6--x--6--6---6---2-2-2-2-----------------------------|
G|-4--4--x--4--4---4---2-2-2-2-----------------------------|
D|---------------------0-0-0-0-----------------------------|
	              (p.m.)
Part 2
D|-7-7-7-7-7-7-7-7---8---8--8--8--8--8--------------------------------|
A|-7-7-7-7-7-7-7-7---8---8--8--8--8--8--------------------------------|
F|-7-7-7-7-7-7-7-7---8---8--8--8--8--8--------------------------------|
C|-9-9-9-9-9-9-9-9--10--10-10-10-10-10---2-2--2-2--2-2--2-2--2-2-2-2--|
G|-9-9-9-9-9-9-9-9--10--10-10-10-10-10---2-2--2-2--2-2--2-2--2-2-2-2--|
D|-7-7-7-7-7-7-7-7---8---8--8--8--8--8---0-0--0-0--0-0--0-0--0-0-0-0--|
                                         p.m.~~~~~~~~~~~~~~~~~~~~~~^
D|-7-7-7-7-7-7-7-7---8---8--8--8--8--8--------------------------------|
A|-7-7-7-7-7-7-7-7---8---8--8--8--8--8--------------------------------|
F|-7-7-7-7-7-7-7-7---8---8--8--8--8--8--------------------------------|
C|-9-9-9-9-9-9-9-9--10--10-10-10-10-10---2-2-2-2--2-2-2-2-2-2---------|
G|-9-9-9-9-9-9-9-9--10--10-10-10-10-10---2-2-2-2--2-2-2-2-2-2---------|
D|-7-7-7-7-7-7-7-7---8---8--8--8--8--8---0-0-0-0--0-0-0-0-0-0---------|
	                                  (p.m.)~~~~~~~~~~~~~~^
Part 1

Part 3 (Clean except for the last chord)
D|----------------------------------------------------------|
A|-----0----------------------------------------------------|
F|-------0-----0-------0------------------------------------|
C|---2-------0---0-0-4---4-----2----------------------------|
G|-3-------2-------------------2----------------------------|
D|-----------------------------0----------------------------|

Part 4
D|--------------------------------------------------------------------|
A|--------------------------5b----3b-----7b----8b---------------------|
F|-5-5-5-5-4-4-4-4-7-7-7-7--5b----4b-----7b----9b---------------------|
C|-5-5-5-5-4-4-4-4-7-7-7-7-----2-2---2-2---2-2----2-2-----------------|
G|-3-3-3-3-2-2-2-2-5-5-5-5-----2-2---2-2---2-2----2-2-----------------|
D|-----------------------------0-0---0-0---0-0----0-0-----------------|
     p.m.  p.m.  p.m.
D|--------------------------------------------------------------------|
A|-------------------------------------5-----3-----7-----8------------|
F|-------------------------------------5-----4-----7-----9------------|
C|-2-2-2-2-2-2-2-2--2--2-2-2-2-2-2-2-2---2-2---2-2---2-2----2-2-------|
G|-2-2-2-2-2-2-2-2--2--2-2-2-2-2-2-2-2---2-2---2-2---2-2----2-2-------|
D|-0-0-0-0-0-0-0-0--0--0-0-0-0-0-0-0-0---0-0---0-0---0-0----0-0-------|
   (p.m.)~~~~~~~~~~~~~~~~~~~~~~~~~~~~^   p.m.  p.m.  p.m.   p.m.
Part 5
D|--------------------------------------------------------|
A|--------------------------------------------------------|
F|-0-0-0--0--0-0-0--0--0-0-0--0--0-0-0--0-----------------|
C|-2-2-2--2--2-2-2--2--2-2-2--2--2-2-2--2---2-------------|
G|-3-3-3--3--3-3-3--3--3-3-3--3--3-3-3--3---2-------------|
D|------------------------------------------0-------------|
  (p.m.)~~~~~~~~~~~~~~~~~~~~~~~~~~~~~~~~^
Extended Part 3(clean)
D|---------------------------------------------------------|
A|-----0---------------------------------------------------|
F|-------0-----0------0-------0------0------0------0-------|
C|---2-------0---0--4---4---5---5--5---5--5---5--5----0----|
G|-3-------2-------5------7------7------7------7-----------|
D|---------------------------------------------------------|

Extended Part 3 (Guitar 2)
D|-----7-------3-----2-3-2--0-3-2-3-0-3-2-3-0-3-2-3-0-3-2--|
A|---5---5---3---3-3--------------------------------------3|
F|-5-------4-----------------------------------------------|
C|---------------------------------------------------------|
G|---------------------------------------------------------|
D|---------------------------------------------------------|

Don't try to contact me because your efforts are futile.    

Added On December 5th, 2013

SHARE

Comments

blog comments powered by Disqus