Poison The Well Tabs

Torn

5 versions

TAB

            Torn Tab by Poison The Well


Poisons the Well: Torn
Tony Siceloff
Siceloff@aol.com
e---------------------------------------------------------
b---------------------------------------------------------
g---------------------------------------------------------  repeat
d--------8-8-------9---8-----------8-8-------9---8--------  clean
a------9-------9-----------9-----6-------6-----------6----  
D----9-----------9-------------6-----------6--------------
e---------------------------------------
b---------------------------------------
g---------------------------------------  repeat
d----9-9---9-9---9-9-6-6---6-6---6-6----  heavy dist.
a----9-9---9-9---9-9-6-6---6-6---6-6----  palm mute
D----9-9---9-9---9-9-6-6---6-6---6-6----not complete, there is more to come    

Added On December 5th, 2013

SHARE

Comments

blog comments powered by Disqus

VERSIONS

ADVERTISEMENT