Porcupine Tree Tabs

Lazarus

6 versions

TAB

            Well First of all i found a tab for this song But i was just the
chords. and when i played them with the song it just didn't sound natural.
So i looked at a live performance on you tube and really studied how the guitarist 
it so i could out the real way to play this great song

So i hope you enjoy! :)

So Right here are the chords for both the versus and the chorus:

E----5---------------------------5------------ 7--------|
B----5---------------------------7-------------9--------|
G----6------------6--------------7-------------9--------|
D----7------------7--------------7-------------9--------|
A----7------------7--------------5-------------7--------|
E----5------------4-------------------------------------|

And those are the main chords so just find the rythum and you should
be on your way.

Bridge:

E----4--------5--------5---------------|
B----5--------7--------5---------------|
G----6--------7--------6-------6-------|
D----6--------7--------7-------7-------|
A----4--------5--------7-------7-------|
E----------------------5-------4-------|

Ending just involves same chords from chorus but some additional
chords Right at the part " come to us Lazarus its time for you to go"
And these are the chords you must know:

E------1-------5--------------5------|
B------1-------7--------------5------|
G------2-------7-------6------6------|
D------3-------7-------7------7------|
A------3-------5-------7------7------|
E------1---------------4------5------|


And once you get the rythm, for all this song you'll be playing just like
porcupine tree!


ENJOY!    

Added On December 16th, 2013

SHARE

Comments

blog comments powered by Disqus

VERSIONS

ADVERTISEMENT