Portugal The Man Tabs

Aka M80 The Wolf

3 versions

TAB

            Standard Tuning

This song mainly consists of two riffs.

The first is mainly clean and is played through most of the song.
----3----3---3-------2-----0-----2h3p2-----------3---5--7------------3-|
---5--5---5---5----5---5-----5-----------5-7-5----5---5-------2--------|
-4-----4---4---4-2-------2-----2-------4-------4---4------------0------|
----------------------------------------------------------0h2-----2----|
-----------------------------------------------------------------------|
-----------------------------------------------------------------------|

The second is distorted and is run through a tremelo pedal (but you can use a phaser 
the right settings and it sounds fine.)

---7---5-----------------7---5--------|
-5---8---7-8-5-11/7-7--5---8---7------|h8hp7
--------------------------------------|
--------------------------------------|
--------------------------------------|
--------------------------------------|    

Added On December 16th, 2013

SHARE

Comments

blog comments powered by Disqus

VERSIONS

ADVERTISEMENT