Portugal The Man Tabs

Devil

2 versions

TAB

            -------------------------------------------------------------------------------
			     SONG NAME - Band Name
-------------------------------------------------------------------------------
Tabbed by: Carlo
Email: carlo_sbisa@yahoo.com

Tuning: standard (EADGBe)

Sorry if some of the repetitions are off,
I am basing this off of the various live recordings floating around Youtube as the 
recording is not available for me.

As always,
listen to the actual song for the timing.


Play this 12 times
e|----------------5p3---------|
B|----5---5---5---------------|
G|--4-4-4-4-4-4-4-------------|
D|----------------------------|
A|----------------------------|
E|----------------------------|


e|--5--3--5--7--5--3----------|
B|--5--5--5--5--5--5----------|
G|--4--4--4--4--4--4----------|
D|----------------------------|
A|----------------------------|
E|----------------------------|

Play this 12 times
e|----------------5p3---------|
B|----5---5---5---------------|
G|--4-4-4-4-4-4-4-------------|
D|----------------------------|
A|----------------------------|
E|----------------------------|

e|--5--3--5--7--5--3----------|
B|--5--5--5--5--5--5----------|
G|--4--4--4--4--4--4----------|
D|----------------------------|
A|----------------------------|
E|----------------------------|

Play this 12 times
e|----------------5p3---------|
B|----5---5---5---------------|
G|--4-4-4-4-4-4-4-------------|
D|----------------------------|
A|----------------------------|
E|----------------------------|


e|--5--3--5--7--5--3----------|
B|--5--5--5--5--5--5----------|
G|--4--4--4--4--4--4----------|
D|----------------------------|
A|----------------------------|
E|----------------------------|

Play this 8 times
e|----------------------------|
B|----------------------------|
G|----------------------------|
D|------------------0h2-------|
A|--------------0h2-----------|
E|--0-0-0-0-0-0---------------|

e|--5--3--5--7--5--3----------|
B|--5--5--5--5--5--5----------|
G|--4--4--4--4--4--4----------|
D|----------------------------|
A|----------------------------|
E|----------------------------|

Play this 8 times
e|----------------------------|
B|----------------------------|
G|----------------------------|
D|------------------0h2-------|
A|--------------0h2-----------|
E|--0-0-0-0-0-0---------------|

e|----------------------------|
B|----------------------------|
G|----------------------------|
D|--2XX-2XX-2XX---------0-2---|
A|--2XX-2XX-2XX-----0-2-------|
E|--0XX-0XX-0XX-0-3-----------|

Play this 4 times
e|----------------5p3---------|
B|----5---5---5---------------|
G|--4-4-4-4-4-4-4-------------|
D|----------------------------|
A|----------------------------|
E|----------------------------|

e|--5-3-5-7-0-----------------|
B|--5-5-5-5-0-----------------|
G|--4-4-4-4-0-----------------|
D|----------------------------|
A|----------------------------|
E|----------------------------|


| /  slide up
| \  slide down
| h  hammer-on
| p  pull-off
| ~  vibrato
| +  harmonic
| x  Mute note
===============================================================================    

Added On December 16th, 2013

SHARE

Comments

blog comments powered by Disqus

VERSIONS

ADVERTISEMENT