Portugal The Man Tabs

Salt

1 versions

TAB

            -------------------------------------------------------------------------------
			     SALT - Portugal. the Man
-------------------------------------------------------------------------------

Tuning: straight up

Main chords for verse/chorus

e|---8-------7-------5------3-----------------------------------------|
B|---8-------7-------5------3-----------------------------------------|
G|---9-------7-------6------4-----------------------------------------|
D|---10------9-------7------5-----------------------------------------|
A|--------------------------------------------------------------------|
E|---8-------7-------5------3-----------------------------------------|

back up vocal/ guitar riff for chorus

e|--------------------------------------------------------------------|
B|--------------------------------------------------------------------|
G|--------------------------------------------------------------------|
D|---------7~---------------------------------------------------------|
A|---5-7-9----7-9b10r9~~~---9-7-5~~-----------------------------|
E|--------------------------------------------------------------------|

"Do you hear the wind child"
                                                             x4 | ending    
e|-------------------------------------------------------------------------|
B|-------------------------------------------------------------------------|
G|------------------9b11-9-7-----------------------9b11-9-7----------------|
D|-7h9-9-7-9-9----------------9-7---7-7-7-7------------------9-7-----------|
A|-------------9----------------------------9-4----------------------------|
E|---------------7~-----------------------------5~-----------------5~~-6~~-|

then back to the chords until end

| /  slide up
| \  slide down
| h  hammer-on
| p  pull-off
| ~  vibrato
| +  harmonic
| x  Mute note
============================================================================    

Added On December 16th, 2013

SHARE

Comments

blog comments powered by Disqus

ADVERTISEMENT