Powderfinger Tabs

Oipic

1 versions

TAB

            Powderfinger - Oipic
Album - Double Allergic
  
   
Tuning DADGAE (low to high) 
 
INTRO:(finger picked) 
E-|---------------|- 
A-|---------------|- 
G-|-7---7---2---2-|- 
D-|-0-0-----0-0---|-(x 2) 
A-|---------------|- 
D-|---------------|- 
 
1ST VERSE: 
    (Far may you run.....) 
E-|------------------------------|- 
A-|-------------------3--------5-|- 
G-|-7---7--7\2-2-0----0--------0-|- 
D-|-0-0--------0-0--3---3--3/5---|-(x 10) Note: after six bars start 
A-|------------------------------|-             playing a few extra 
D-|------------------------------|-             notes here & there 
 
   (And we stand by....) 
E-|-------------|- 
A-|-------------|- 
G-|-------------|- 
D-|-7-7-7-7-7-7-|- 
A-|-7-7-7-7-7-7-|- 
D-|-7-7-7-7-7-7-|- 
 
2ND VERSE: 
E-|---------------------------------|- 
A-|----7-7-7-7\5-5------------------|- 
G-|----7-7-7-7\5-5---5--5-5-5-5/7-7-|- 
D-|-0--0-0-0-0---0---3--3-3-3-3/5-5-|-(x 8) 
A-|-0--0-0-0-0---0---3--3-3-3-3/5-5-|- 
D-|-0--0-0-0-0---0---3--3-3-3-3/5-5-|- 
 
 
    (The New Seasons King....) 
E-|------------------------------|- 
A-|------------------------------|- 
G-|-7--7----2--2----3--3----5--5-|- 
D-|-7--7----2--2-0--3--3----5--5-|-(x4) 
A-|-5--5----0--0--3-1--1----3--3-|- 
D-|-0--0-------------------------|- 
 
   (And we stand by....) 
E-|-----------------|- 
A-|-----------------|- 
G-|-----------------|- 
D
D
e |---|-x-|---|---|---|
B |---|---|-x-|---|---|
G |---|-x-|---|---|---|
D |---|---|---|---|---|
A |---|---|---|---|---|
E |---|---|---|---|---|
-|-7-7-7-7-7-7-7-7-|-(x2) A-|-7-7-7-7-7-7-7-7-|- D-|-7-7-7-7-7-7-7-7-|- INTERLUDE: D THEN THIS STRINGED PART WRITTEN FOR GUITAR: (x3) E-|-----------|- A-|-----------|- G-|---7--7-7--|- (This Bar keeps repeating in the background D-|-0-7--7-7--|- right through the interlude until the A-|-0-5--5-5--|- until the '********' below). D-|-0-0--0-0--|- E-|------------|- A-|------------|- G-|---7--7-7/9-|- D-|-0-7--7-7---|- A-|-0-5--5-5/7-|- D-|-0----------|- E-|-----------------------------------|- A-|-----------------------------------|- G-|-10-10--9-9--7-7--7-5-2-5/7---5-2--|- D-|----------------------2-------5-2--|-(x 2) A-|-8--8---7-7--5-5--5-3-0-3/5-0-3-0--|- D-|-0--0---0-0--0-0--0-0---0---0-0----|- E-|---------------------------------|- A-|---------------------------------|- G-|-15-15--14-14----15-15--14-12-10-|- D-|---------------------------------|-(x2) A-|-13-13--12-12----13-13--12-10-8--|- D-|-0--0---0--0-----0--0---0--0--0--|- E-|--------------------------------|- A-|--------------------------------|- G-|-10-10--9-9--7-7--7-7---7-7--7--|- D-|------------------7-7---7-7--7--|- A-|-8--8---7-7--5-5--5-5-0-5-5--5--|- D-|-0--0---0-0--0-0--0-0---0-0--0--|- ^ Very Short, Cutting Chord. ******** E-|-------------|- A-|-------------|- G-|---7-7-9-5-2-|- D
D
e |---|-x-|---|---|---|
B |---|---|-x-|---|---|
G |---|-x-|---|---|---|
D |---|---|---|---|---|
A |---|---|---|---|---|
E |---|---|---|---|---|
-|-0-7-7-9-5-2-|-(x2) A-|-0-5-5-7-3-0-|- D-|-0-0-0-0-0---|- E-|----------------|- A-|----------------|- G-|---7-7-9-10-10--|- D-|-0-7-7-9-10-10--|-(x2) A-|-0-5-5-7-8--8---|- D-|-0-0-0-0-0--0---|- E-|-------------------|- A-|-------------------|- G-|-12-12-12-10-10-10-|- D
D
e |---|-x-|---|---|---|
B |---|---|-x-|---|---|
G |---|-x-|---|---|---|
D |---|---|---|---|---|
A |---|---|---|---|---|
E |---|---|---|---|---|
-|-12-12-12-10-10-10-|-(x2) A-|-10-10-10-8--8--8--|- D-|-0--0--0--0--0--0--|- E-|-------------|- A-|-------------|- G-|---7-7-9-5-2-|- D
D
e |---|-x-|---|---|---|
B |---|---|-x-|---|---|
G |---|-x-|---|---|---|
D |---|---|---|---|---|
A |---|---|---|---|---|
E |---|---|---|---|---|
-|-0-7-7-9-5-2-|-(x2) A-|-0-5-5-7-3-0-|- D-|-0-0-0-0-0---|- E-|----------------------------------------|- A-|----------------------------------------|- G-|----------------------------------------|- D-|-9--7--5--4~~--3~~--2~~--3--3-3-3-3/5-5-|-(this bit's tricky, but A-|-------------------------3--3-3-3-3/5-5-|- this should sound ok) D-|-------------------------3--3-3-3-3/5-5-|- 3RD VERSE: (Far May you run.......) E-|---------------------------------|- A-|----7-7-7-7\5-5------------------|- G-|----7-7-7-7\5-5---5--5-5-5-5/7-7-|- D-|-0--0-0-0-0---0---3--3-3-3-3/5-5-|-(x 4) A-|-0--0-0-0-0---0---3--3-3-3-3/5-5-|- D-|-0--0-0-0-0---0---3--3-3-3-3/5-5-|- CHORUS: (The New Seasons King....) E-|------------------------------|- A-|------------------------------|- G-|-7--7----2--2----3--3----5--5-|- D-|-7--7----2--2-0--3--3----5--5-|-(x6) A-|-5--5----0--0--3-1--1----3--3-|- D-|-0--0-------------------------|- (And we stand by....) E-|-------------|- A-|-------------|- G-|-------------|- D-|-7-7-7-7-7-7-|- A-|-7-7-7-7-7-7-|- D-|-7-7-7-7-7-7-|- And then finish on a D chord.

Added On December 16th, 2013

SHARE

Comments

blog comments powered by Disqus

ADVERTISEMENT