Pretty Maids Tabs

Red Hot And Heavy

1 versions

TAB

            Pretty Maids - Red Hot and Heavy
This is probably one of the coolest songs I have ever heard.
Tabbed by Thrikodius. email: thrikodius@hotmail.com

h = Hammer On
p = Pull Off
* = pinch harmonics (there are good guides on youtube if you don't know how to make them)
~ = let ring (after a pinch harmonic its vibrato)
/ = slide
^ = palm mute

Intro:
e|-----------------------------------------------------------------|
B|-----------------------------------------------------------------|
G|-----------------------------------------------------------------|
D|-------------2-------------------------------4-------------------|
A|-2-----------0-------------------2-----------2-------------------|
E|-0---2---2-------2---2---2---2-2-0---2---2-------2---2---2---2-2-|

e|-----------------------------------------------------------|
B|-----------------------------------------------------------|
G|-----------------------------------------------------------|
D|-------------2---------------------------------------------|
A|-2-----------0-----------------------4/3-2---------4/3-2---|
E|-0---2---2-------2---2---2---2-2-2-2-------4---2-2-------4-|

Those single notes on the 2nd fret of the E string can be palm muted. I prefer to play 
without palm mute or with a verry light mute.

Verse1:
e|---------------------------------------------------------------------|
B|---------------------------------------------------------------------|
G|---------------------------------------------------------------------|
D|-2-----------7---2-----------9---2-----------5---5-------------------|
A|-0---0-0-0---5---0---0-0-0---7---0---0-0-0---3---3-----3-5-3-4-3-5*~-|
E|-----^-^-^-----------^-^-^-----------^-^-^---------------------------|

e|---------------------------------------------------------------------|
B|---------------------------------------------------------------------|
G|---------------------------------------------------------------------|
D|-2-----------7---2-----------9---2-----------5---5-------------------|
A|-0---0-0-0---5---0---0-0-0---7---0---0-0-0---3---3-----3-5-3-4-3-4h5-|
E|-----^-^-^-----------^-^-^-----------^-^-^---------------------------|

Bridge:
e|------------------------------------------------------------------------|
B|------------------------------------------------------------------------|
G|-----------11---9h8---10-----9-10-9-8p7------11-9-8---------------------|
D|---------9-----------------9--------------11------------7---7-----9---9-|
A|-0~~~~~~~~~~~~~~~~~~~~~~~~~~~~~~~~~~~~~~~~~~~~~~~~~-----5---5-----7---7-|
E|------------------------------------------------------0---------0-------|
                                                        ^         ^
e|-------------------------------------------------------------------|
B|-------------------------------------------------------------------|
G|-------------------------------------------------------------------|
D|-------------------------------------------------------------------|
A|-5---5-5-5---5-5-5---5-5-5---5-5-5---5-5-5---5-5-5---5-5-5---5-5-5-|
E|-3---3-3-3---3-3-3---3-3-3---3-3-3---3-3-3---3-3-3---3-3-3---3-3-3-|
   ^   ^ ^ ^   ^ ^ ^   ^ ^ ^   ^ ^ ^   ^ ^ ^   ^ ^ ^   ^ ^ ^   ^ ^ ^
e|----------------------------------------|
B|----------------------------------------|
G|----------------------------------------|
D|---------------------------9---7---5--3-|
A|-5-5-5---5-5-5---5-5-5---5-7---5---3--1-|
E|-3-3-3---3-3-3---3-3-3---3--------------|
   ^ ^ ^   ^ ^ ^   ^ ^ ^   ^
Verse2:
e|---------------------------------------------------------------------| X2
B|---------------------------------------------------------------------|
G|---------------------------------------------------------------------|
D|-2-----------7---2-----------9---2-----------5---5-------------------|
A|-0---0-0-0---5---0---0-0-0---7---0---0-0-0---3---3-----3-5-3-4-3-4h5-|
E|-----^-^-^-----------^-^-^-----------^-^-^---------------------------|

Bridge:
e|------------------------------------------------------------------------|
B|------------------------------------------------------------------------|
G|-----------11---9h8---10-----9-10-9-8p7------11-9-8---------------------|
D|---------9-----------------9--------------11------------7---7-----9---9-|
A|-0~~~~~~~~~~~~~~~~~~~~~~~~~~~~~~~~~~~~~~~~~~~~~~~~~-----5---5-----7---7-|
E|------------------------------------------------------0---------0-------|
                                                        ^         ^
Chorus: (same as intro)
e|-----------------------------------------------------------------|
B|-----------------------------------------------------------------|
G|-----------------------------------------------------------------|
D|-------------2-------------------------------4-------------------|
A|-2-----------0-------------------2-----------2-------------------|
E|-0---2---2-------2---2---2---2-2-0---2---2-------2---2---2---2-2-|

e|-----------------------------------------------------------| X2
B|-----------------------------------------------------------|
G|-----------------------------------------------------------|
D|-------------2---------------------------------------------|
A|-2-----------0-----------------------4/3-2---------4/3-2---|
E|-0---2---2-------2---2---2---2-2-2-2-------4---2-2-------4-|

Verse3: (same as verse 1 but the pinch harmonic is a little darker)
e|---------------------------------------------------------------------|
B|---------------------------------------------------------------------|
G|---------------------------------------------------------------------|
D|-2-----------7---2-----------9---2-----------5---5-------------------|
A|-0---0-0-0---5---0---0-0-0---7---0---0-0-0---3---3-----3-5-3-4-3-5*~-|
E|-----^-^-^-----------^-^-^-----------^-^-^---------------------------|

e|---------------------------------------------------------------------|
B|---------------------------------------------------------------------|
G|---------------------------------------------------------------------|
D|-2-----------7---2-----------9---2-----------5---5-------------------|
A|-0---0-0-0---5---0---0-0-0---7---0---0-0-0---3---3-----3-5-3-4-3-4h5-|
E|-----^-^-^-----------^-^-^-----------^-^-^---------------------------|

Bridge:
e|------------------------------------------------------------------------|
B|------------------------------------------------------------------------|
G|-----------11---9h8---10-----9-10-9-8p7------11-9-8---------------------|
D|---------9-----------------9--------------11------------7---7-----9---9-|
A|-0~~~~~~~~~~~~~~~~~~~~~~~~~~~~~~~~~~~~~~~~~~~~~~~~~-----5---5-----7---7-|
E|------------------------------------------------------0---------0-------|
                                                        ^         ^
Chorus: (same as intro)
e|-----------------------------------------------------------------|
B|-----------------------------------------------------------------|
G|-----------------------------------------------------------------|
D|-------------2-------------------------------4-------------------|
A|-2-----------0-------------------2-----------2-------------------|
E|-0---2---2-------2---2---2---2-2-0---2---2-------2---2---2---2-2-|

e|-----------------------------------------------------------| X2
B|-----------------------------------------------------------|
G|-----------------------------------------------------------|
D|-------------2---------------------------------------------|
A|-2-----------0-----------------------4/3-2---------4/3-2---|
E|-0---2---2-------2---2---2---2-2-2-2-------4---2-2-------4-|

Bridge:
e|---------------------------------------------------------------------|
B|---------------------------------------------------------------------|
G|---------------------------------------------------------------------|
D|-2---------------2---------------2-----------------------------------|
A|-0---0-0-0---5*~~0---0-0-0---7*~~0---0-0-0---3*~~~~----3-5-3-4-3-4h5-|
E|-----^-^-^-----------^-^-^-----------^-^-^---------------------------|

Solo:
Haven't found that one yet. I might but it would take a while.

After the solo comes the awsome chorus. But you play it twice this time.
e|-----------------------------------------------------------------|
B|-----------------------------------------------------------------|
G|-----------------------------------------------------------------|
D|-------------2-------------------------------4-------------------|
A|-2-----------0-------------------2-----------2-------------------|
E|-0---2---2-------2---2---2---2-2-0---2---2-------2---2---2---2-2-|

e|-----------------------------------------------------------| X2
B|-----------------------------------------------------------|
G|-----------------------------------------------------------|
D|-------------2---------------------------------------------|
A|-2-----------0-----------------------4/3-2---------4/3-2---|
E|-0---2---2-------2---2---2---2-2-2-2-------4---2-2-------4-|

Then the end... well you'll have to wait for that one to.

Anyway have fun with the pieces I have so far. I totally forgot about the end part, 
for that. :P    

Added On December 16th, 2013

SHARE

Comments

blog comments powered by Disqus

ADVERTISEMENT