Punchline Tabs

Flashlight

1 versions

TAB

            Flashlight Tab by Punchline


I saw these guys at my highschool while they were touring with Army of Freshman, Lucky
Confusion and Bowling for Soup...they were awesome...this song is off their new cd.. it
be released soon.


e|--------------------------------------------------------------------------|
B|--------------------------------------------------------------------------|
G|----------------------------7--7--x--x--x---7--7--x--x--x---7-------------|
D|----------------------------7--7--x--x--x---7--7--x--x--x---7----4--------|
A|----------------------------5--5--x--x--x---5--5--x--x-x----5----4--------|
E|---2(get feed back)----------------------------------------------2--------|

Guitar 1
e|----------------------------------------------------------------------------|
B|----------------------------------------------------------------------------|
G|----------------------------------------------------------------------------|
D|---------4-----------7---------7-----------4---------4-----------7----------|
A|---------4---(x8)----7---(x8)--7----(x16)--4---(x8)--4--(x8)-----7(let------|
E|- -0-1-2-2-----------5---------9-----------2---------2-----------9-ring)----|

Guitar 2 (goes roughly like this)
e|--------------------------------------------------------------------------|
B|--------------------------------------------------------------------------|
G|-16------14----9---11-----------------------------------------------------|
D|-x------x-----x---x-------------------------------------------------------|
A|-14-----12----7---9-------------------------------------------------------|
E|--------------------------------------------------------------------------|

Verse add chops(...) between notes (all power chords)

F#....F#. . A F# B E F#

F#....F#. . A F# B E F#
do A F# B E

Guitar 1
e|--------------------------------------------------------------------------|
B|--------------------------------------------------------------------------|
G|--------------------------------------------------------------------------|
D|---------4-----------7---------7-----------4---------4-----------7--------|
A|---------4---(x8)----7---(x8)--7----(x16)--4---(x8)--4--(x8)-----7(let----|
E|---------2-----------5---------9-----------2---------2-----------9-ring)--|

Guitar 2 (goes roughly like this)
e|--------------------------------------------------------------------------|
B|--------------------------------------------------------------------------|
G|-16------14----9---11-----------------------------------------------------|
D|-x------x-----x---x-------------------------------------------------------|
A|-14-----12----7---9-------------------------------------------------------|
E|--------------------------------------------------------------------------|

repeat that a few times

Bridge

open E F# E F# B A E F#

then play chorus and verse 1 more time

and fininsh the song with the chorus

thats it

i hope its right


and enjoy my first tab

-Tom    

Added On December 5th, 2013

SHARE

Comments

blog comments powered by Disqus

ADVERTISEMENT