Pupil Tabs

Mary

2 versions

TAB

            Mary Tab by Pupil


Mary. Pupil

Pupil are:
Ely Buendia- Vox/Guitars
Yan Yuzon- Guitars/Vox
Dok Sergio- Bass/Vox
Bogs Jugo- Drums/Vox

Tabbed by: Angelo Javier, 14
E-mail address/Friendster account: javs_52@yahoo.com
YM id: javs_52
Blog: http://wagkangiiyak.blogspot.com



Intro/Filler:

e|--------------------------------------|
B|--------------------------------------|
G|--------------5-------------------5---|  2
D|-----------5-7-7-5-7-5---------5-7-7--|times
A|------5-5-7-----------7-6-5-5-7-------|ip-play
E|--------------------------------------|

Verse:  D-A (4 times)

Chorus: C-G-D-A (2 times)

Filler:
e|--------------------------------------|
B|--------------------------------------|
G|--------------5-------------------5---|  
D|-----------5-7-7-5-7-5---------5-7-7--|
A|------5-5-7-----------7-6-5-5-7-------|
E|--------------------------------------|

Verse:  D-A (4 times)

Chorus: C-G-D-A (2 times)

Adlib:  C-G-D-A (2 times)

Chorus: C-G-D-A (2 times)

Outro:  C-G-D-A (fade)

Out:
e|--------------------------------------|
B|--------------------------------------|
G|--------------5-------------------5---|  
D|-----------5-7-7-5-7-5---------5-7-7--|
A|------5-5-7-----------7-6-5-5-7-------|
E|--------------------------------------|




Lyrics:

I'm Driving down the highway
With Mary on my mind
I'm driving down the highway
And my tears begin to dry

And I never thought that this could be
That for once in my life I'd be so free

Suddenly my curses, flashes and fears
Fall behind
Suddenly down the highway
With Mary on my mind

So free


Listen to the CD! It's really good!
Support OPM! Buy the Original!    

Added On December 5th, 2013

SHARE

Comments

blog comments powered by Disqus

VERSIONS

ADVERTISEMENT