Queens Of The Stone Age Tabs

I Wanna Make It Wit Chu Live Solo

2 versions

TAB

            I Wanna Make It Wit Chu Live Tab by Queens Of The Stone Age


Artist: Queens Of The Stone Age
Album: Over The Years And Through The Woods (Live In London)
Song: I Wanna Make It Wit Chu

This song is from Dessert Sessions Vol. 9 & 10. For the chords look up Dessert Sessions 
I Wanna Make It Wit Chu. This is not 100% accurate but its a start, close to it.

This is the intro solo from this song. Listen to the song for the timing. Not sure about 
tuning, I just play with standard tuning.

E---------------------------------------------------------------------------|
B-----5--------------------------------5---5--------------------------------|
G-3-5---3-3h5-3h5-2-2-2-3-3-3-2-1-3b-5---5---5-3-5-3\1/5-3-5b-5b-3-5b-5b-3--|
D---------------------------------------------------------------------------|
A---------------------------------------------------------------------------|
E---------------------------------------------------------------------------|

E---------------------------------------------------------------------------|
B---------------------------------------------------------------------------|
G-2-3-5-3-5--5-3-5-3-2------------------------------------------------------|
D----------------------1-1-3b-2-4-2-3-2-3-2-1-------------------------------|
A---------------------------------------------------------------------------|
E---------------------------------------------------------------------------|    

Added On December 5th, 2013

SHARE

Comments

blog comments powered by Disqus

VERSIONS

ADVERTISEMENT