Queers Tabs

Get A Life Live It

1 versions

TAB

            Intro
-------------------------------------|
-------------------------------------|
--8/9-9-9-9-9-9-9-9-9-9-9-9-9-9-9-9--|
--8/9-9-9-9-9-9-9-9-9-9-9-9-9-9-9-9--|
--6/7-7-7-7-7-7-7-7-7-7-7-7-7-7-7-7--|
-------------------------------------|

Verse
-------------------------------    -------------------|
-------------------------------    -------------------|
--------9--9--7-7-7-7-7-7-7-7-- x4 --9-9-9-9-9-9-9-9--|
--7--7--9--9--7-7-7-7-7-7-7-7--    --9-9-9-9-9-9-9-9--|
--7--7--7--7--5-5-5-5-5-5-5-5--    --7-7-7-7-7-7-7-7--|
--5--5-------------------------    -------------------|

Pre-Chorus
-----------------------------------------------------------|
-----------------------------------------------------------|
--------6--6--7--7--9--9----------6-6-6-6-7-7-7-7-9-9-9-9--|
--7--7--6--6--7--7--9--9--7-7-7-7-6-6-6-6-7-7-7-7-9-9-9-9--|
--7--7--4--4--5--5--7--7--7-7-7-7-4-4-4-4-5-5-5-5-7-7-7-7--|
--5--5--------------------5-5-5-5--------------------------|

Chorus
-----------------------------------    -----------------------|
-----------------------------------    -----------------------|
------------------7-7-7-7-7-7-7-7-- x3 --------7--7--9--9--7--|
--7-7-7-7-7-7-7-7-7-7-7-7-7-7-7-7--    --7--7--7--7--9--9--7--|
--7-7-7-7-7-7-7-7-5-5-5-5-5-5-5-5--    --7--7--5--5--7--7--5--|
--5-5-5-5-5-5-5-5------------------    --5--5-----------------|

---------------------------------------------------------------------|
---------------------------------------------------------------------|
------------------7-7-7-7-7-7-7-7-8/9-9-9-9-9-9-9-9-9-9-9-9-9-9-9-9--|
--7-7-7-7-7-7-7-7-7-7-7-7-7-7-7-7-8/9-9-9-9-9-9-9-9-9-9-9-9-9-9-9-9--|
--7-7-7-7-7-7-7-7-5-5-5-5-5-5-5-5-6/7-7-7-7-7-7-7-7-7-7-7-7-7-7-7-7--|
--5-5-5-5-5-5-5-5----------------------------------------------------|

Bridge
-----------------------------------|
-----------------------------------|
--9-9-9-9-9-9-9-9------------------| x2
--9-9-9-9-9-9-9-9-7-7-7-7-7-7-7-7--|
--7-7-7-7-7-7-7-7-7-7-7-7-7-7-7-7--|
------------------5-5-5-5-5-5-5-5--|

-----------------------------------|
-----------------------------------|
--7-7-7-7-7-7-7-7------------------|
--7-7-7-7-7-7-7-7-7-7-7-7-7-7-7-7--|
--5-5-5-5-5-5-5-5-7-7-7-7-7-7-7-7--|
------------------5-5-5-5-5-5-5-5--|

-----------------------------------|
-----------------------------------|
--9-9-9-9-9-9-9-9-9-9-9-9-9-9-9-9--|
--9-9-9-9-9-9-9-9-9-9-9-9-9-9-9-9--|
--7-7-7-7-7-7-7-7-7-7-7-7-7-7-7-7--|
-----------------------------------|

--------------------------    -----------------------------------|
--------------------------    -----------------------------------|
--------6--6--7--7--9--9-- x1 ----------6-6-6-6-7-7-7-7-9-9-9-9--| x3
--7--7--6--6--7--7--9--9--    --7-7-7-7-6-6-6-6-7-7-7-7-9-9-9-9--|
--7--7--4--4--5--5--7--7--    --7-7-7-7-4-4-4-4-5-5-5-5-7-7-7-7--|
--5--5--------------------    --5-5-5-5--------------------------|    

Added On December 16th, 2013

SHARE

Comments

blog comments powered by Disqus

ADVERTISEMENT