Queers Tabs

I Never Got The Girl

1 versions

TAB

            Intro
|-------------|
|-------------|
|--7-7-7-7-7--|
|--7-7-7-7-7--|
|--5-5-5-5-5--|

Verse
|-----------------------------------|
|-----------------------------------|
|--7-7-7-7-7-7-7-7------------------| x3
|--7-7-7-7-7-7-7-7-5-5-5-5-7-7-7-7--|
|--5-5-5-5-5-5-5-5-5-5-5-5-7-7-7-7--|
|------------------3-3-3-3-5-5-5-5--|

|-----------------------------------|
|-----------------------------------|
|--7-7-7-7-7-7-7-7------------------|
|--7-7-7-7-7-7-7-7-7-7-7-7-5-5-5-5--|
|--5-5-5-5-5-5-5-5-7-7-7-7-5-5-5-5--|
|------------------5-5-5-5-3-3-3-3--|

|-----------------------------------|
|-----------------------------------|
|--7-7-7-7-7-7-7-7------------------| x3
|--7-7-7-7-7-7-7-7-5-5-5-5-7-7-7-7--|
|--5-5-5-5-5-5-5-5-5-5-5-5-7-7-7-7--|
|------------------3-3-3-3-5-5-5-5--|

|-----------------------------------|
|-----------------------------------|
|--7-7-7-7-7-7-7-7-7-7-7-7-7-7-7-7--|
|--7-7-7-7-7-7-7-7-7-7-7-7-7-7-7-7--|
|--5-5-5-5-5-5-5-5-5-5-5-5-5-5-5-5--|
|-----------------------------------|

Pre-Chorus
|-------------------------------------------------------------------|
|-------------------------------------------------------------------|
|----------------------------------7-7-7-7-7-7-7-7-7-7-7-7-7-7-7-7--|
|--5-5-5-5-5-5-5-5-5-5-5-5-5-5-5-5-7-7-7-7-7-7-7-7-7-7-7-7-7-7-7-7--|
|--5-5-5-5-5-5-5-5-5-5-5-5-5-5-5-5-5-5-5-5-5-5-5-5-5-5-5-5-5-5-5-5--|
|--3-3-3-3-3-3-3-3-3-3-3-3-3-3-3-3----------------------------------|

|-----------------------------------|
|-----------------------------------|
|-----------------------------------|
|--5-5-5-5-5-5-5-5-5-5-5-5-5-5-5-5--|
|--5-5-5-5-5-5-5-5-5-5-5-5-5-5-5-5--|
|--3-3-3-3-3-3-3-3-3-3-3-3-3-3-3-3--|

|-------------------------------------------------------------------|
|-------------------------------------------------------------------|
|-------------------------------------------------------------------|
|--7-7-7-7-7-7-7-7-7-7-7-7-7-7-7-7-7-7-7-7-7-7-7-7-7-7-7-7-7-7-7-7--|
|--7-7-7-7-7-7-7-7-7-7-7-7-7-7-7-7-7-7-7-7-7-7-7-7-7-7-7-7-7-7-7-7--|
|--5-5-5-5-5-5-5-5-5-5-5-5-5-5-5-5-5-5-5-5-5-5-5-5-5-5-5-5-5-5-5-5--|

Chorus
|-----------------------------------|
|-----------------------------------|
|--7-7-7-7-7-7-7-7------------------| x2
|--7-7-7-7-7-7-7-7-5-5-5-5-7-7-7-7--|
|--5-5-5-5-5-5-5-5-5-5-5-5-7-7-7-7--|
|------------------3-3-3-3-5-5-5-5--|

|---------------------------------------------------|
|---------------------------------------------------|
|--7-7-7-7-------------------------7-7-7-7-7-7-7-7--|
|--7-7-7-7-9-9-9-9-5-5-5-5-7-7-7-7-7-7-7-7-7-7-7-7--|
|--5-5-5-5-9-9-9-9-5-5-5-5-7-7-7-7-5-5-5-5-5-5-5-5--|
|----------7-7-7-7-3-3-3-3-5-5-5-5------------------|

Bridge
|-----------------------------------|
|-----------------------------------|
|--------------------------7-7-7-7--| x3
|--7-7-7-7-7-7-7-7-5-5-5-5-7-7-7-7--|
|--7-7-7-7-7-7-7-7-5-5-5-5-5-5-5-5--|
|--5-5-5-5-5-5-5-5-3-3-3-3----------|

|---------------------------------------------------|
|---------------------------------------------------|
|----------7-7-7-7----------------------------------|
|--5-5-5-5-7-7-7-7-7-7-7-7-7-7-7-7-7-7-7-7-7-7-7-7--|
|--5-5-5-5-5-5-5-5-7-7-7-7-7-7-7-7-7-7-7-7-7-7-7-7--|
|--3-3-3-3---------5-5-5-5-5-5-5-5-5-5-5-5-5-5-5-5--|

Bell Part
|--------|
|--------|
|--7*----| througout the 2nd verse
|----7*--|
|--------|
|--------|    

Added On December 16th, 2013

SHARE

Comments

blog comments powered by Disqus

ADVERTISEMENT