Radio Moscow Tabs

City Lights

1 versions

TAB

            -------------------------------------------------------------------------------
                             City Lights - Radio Moscow
-------------------------------------------------------------------------------
Tabbed by: Scourgy
E-mail: Scourgy@gmail.com

Tuning: Standard

Intro / Chorus
e|----------|------------------------------------------------------------------|
B|-------6--|------------------------------------------------------------------|
G|---------7|------------------------------------------------------------------|
D|----------|---3h5p3----/7-5-5h6p5p0-3----------------------------------------|
A|-3/5-8----|-5-------5-----------------5--------------------------------------|
E|----------|------------------------------------------------------------------|
This bit ^ varies slightly.

Pre Verse (as close as I could work it out)
e|-------------------|-----------------|-------------------|-------------------|
B|-------------------|---------------7-|-------------------|-------------------|
G|-------------------|---------------7-|-------------------|-------------------|
D|-6-5-3-0-3-0-------|-6-5-3-0-3-0-----|-6-5-3-0-3-0-------|-------------3-----|
A|-------------------|-------------5---|-------------------|---------3-----5---|
E|-------------4p3p1-|-----------------|-------------4p3p1-|-1/3-4-5---5-------|

Verse
e|-----------------------------------------------------------------------------|
B|-----------------------------------------------------------------------------|
G|-------------------------------7------------7--------------------------------|
D|---------3---------5h6p5p0-3------5h6p5p0-3----------------------------------|
A|-5-5-5-5---5-5-5-5-----------5-----------------------------------------------|
E|-----------------------------------------------------------------------------|

e|-----------------------------------------------------------------------------|
B|-----------------------------------------------------------------------------|
G|--------------------------------------------7-------------7------------------|
D|-5-5-5-5-----5-----5---5-----5--5h6p5p0-3-----5h6p5p0-3----------------------|
A|------------------------------------------5-------------5--------------------|
E|---------1/3---3-3---3---3-3-------------------------------------------------|

Pre Chorus
e|-----------------------------------------------------------------------------|
B|-----------------------------------------------------------------------------|
G|----5------------------------------------------------------------------------|
D|----5----------------5----3------------------5----------------5h6p5p0-3------|
A|----3----------------5----3------------------5--------------------------5----|
E|---------------------3----1------------------3-------------------------------|
 City Lights and these fast cars, They keep on driving in my way

Breakdown
e|-----------------------------------------------------------------------------|
B|-----------------------------------------------------------------------------|
G|-----------------------------------------------------------------------------|
D|-5h6p5p0-3----5h6p5p0-3-3--5h6p5p0-3---5h6p5p0-3-----------------------------|
A|-----------5-------------------------3-----------5---------------------------|
E|-----------------------------------------------------------------------------|

And that's pretty much all I could be bothered tabbing but it sounds 80% if not more. Please vote highly if 
this helped you learn City Lights and let me know what you think of this tab in the comments section.
Peace =]

************************************

| /   slide up
| \   slide down
| h   hammer-on
| p   pull-off
| ~   vibrato
| +   harmonic
| x   Mute note
| b   Bend
| pb  Pre-bend
| br  Bend release
| pbr Pre-bend release
| brb Bend release bend

************************************    

Added On July 9th, 2014

SHARE

Comments

blog comments powered by Disqus

ADVERTISEMENT