Rage Against The Machine Tabs

Bombtrack

14 versions

TAB

            Bombtrack Tab by Rage Against The Machine


Listen to the CD for where the choruses go, and sorry no solo....
A pretty easy song that hardly involves moving your hand at all!

Hooray for my first ever TAB!

You might have to fiddle about with some bits, maybe not...

Complains or compliment(s) to fdarules@hotmail.com, 

Intro

E|-----------------|--------------------
B|-----------------|--------------------
G|-----------------|---------------0----
D|--2-0--0---------|----2-0---0-2-------
A|------2--2-------|--------2-----------
E|-0----------3-0--|-0------------------

E|-----------------|-----------------
B|-----------------|-----------------
G|-----------------|-----------------
D|--2-0--0---------|---2-0--0--------
A|------2--2-------|-------2--2------
E|-0----------3-0--|-0----------3-2-0

Chorus

E|------------------------------------
B|------------------------------------
G|------------------------------------
D|-----6---------2-4-----6------------
A|-2-4-4-2-4-2-4-4-2-2-4-4-2-4-2-4320-
E|-0-2---0-2-0-2-----0-2---0-2-0------


Verse

E|---------------------|--------------------
B|---------------------|--------------------
G|---------------------|--------------------
D|---------------------|---------4-3--------
A|4-4-2-4-4-4-4-7----4-4-2-4---------4-3-2-0
E|2-2-0-2-2-2-2-5----2-2-0-2----------------


Bridge

E|-------------------------|-------------------------------  You don't have to play the
B|-------------------------|-------------------------------  ( )'s here, but I think it 
G|-------------------------|-------------------------------  sounds better with them.
D|-------------------------|-------------------(6)-(5)-(4)-
A|--------(7)--------------|--------(7)---------4-0-3-0-2--
E|-2-0-2-0-5-2-0-2-0-2-xxxx|-2-0-2-0-5-2-0-2-0-------------    
 							       
Ending (lead off from chorus)						   


E|-----------------------------------------------
B|-----------------------------------------------
G|-----------------------------------------------
D|-----6----------6-4-----6---------6-5-4---5-4-3
A|-2-4-4-2-4-2-4--4-2-2-4-4-2-4-2-4-4-3-2---3-2-1
E|-0-2---0-2-0-2------0-2---0-2-0-2--------------    

Added On December 5th, 2013

SHARE

Comments

blog comments powered by Disqus