Rage Against The Machine Tabs

Killing In The Name

14 versions

TAB

            Killing In The Name Tab by Rage Against The Machine


Person: Chris Boersma

song: Killing in the Name

artist: Rage Against the Machine

tab: DROP D

notation =

PM - palm mute
* - artificial harmonic
b - bend
r - return
h - hammer on
p - pull off
/ - slide
tr - tremolo pick
~ - vibe

INTRO
E|----------------------|
B|----------------------|
G|----------------------|
D|-0-----0-----0-----0--|
A|-0-----0-----0-----0--|
D|-0-----0-----0-----0--|

then bass, then

E|-------------------|
B|-------------------|
G|-------------11-12-|
D|-------11-12-------| 
A|-------------------|
D|-0-0-0-------------|

every third time

E|----------------------|
B|----------------------|
G|-------------12b14r12-|
D|-------11-12----------|  
A|----------------------|
D|-0-0-0----------------|

E|-------------|----|
B|-------------|----|
G|-------------|----|
D|-------------|----|
A|-------6-6-6-|-6*-|
D|-0-0-0-------|----|
                end

VERSE 			       ( fill )
E|-------------------------||------------------------------|
B|-------------------------||--------------------------6~--|
G|-------------------------||--------------------5-6-7-----|
D|-----------3/4-----------||----------3/4-5-6-7-----------|
A|-0-3h5-x-x-----5-0-2h3p2-||-0-3h5-x-x--------------------|
D|-0---------------0-2h3p2-||-0----------------------------|

PM for vocals

BRIDGE
E|-------------------------------------------------|
B|-------------------------------------------------|
G|-----------4-----------3-----------2-------------|
D|-------x-x---------x-x---------x-x---------------|
A|---3h5---------3h5---------3h5-------2h3p2-2h3p2-|
D|-0-----------0-----------0-----------2h3p2-2h3p2-|

E|-----------------------------------------------------|
B|-----------------------------------------------------|
G|-----------4-----------3-----------2-----------------|
D|-------x-x---------x-x---------x-x-------------------|
A|---3h5---------3h5---------3h5-------2-2-2-2-2-2-2-2-|
D|-0-----------0-----------0-----------2-2-2-2-2-2-2-2-|
				       

PRE CHORUS  (triplet)
E|-------------|
B|-------------|
G|-7-7--7------|
D|-7-7--7------|
A|-5-5--5------|
D|-0-0--0------|

E|---------------------------|
B|---------------------------|
G|-7-7-x-7-x-x--x-x-x--x-x-x-|
D|-7-7-x-7-x-x--x-x-x--x-x-x-|
A|-5-5-x-5-x-x--x-x-x--x-x-x-|
D|-0-0-x-0-x-x--x-x-x--x-x-x-|

E|------------------------|
B|------------------------|
G|-7-7-x-7-x-x--x-x-3///7-|
D|-7-7-x-7-x-x--x-x-3///7-|
A|-5-5-x-5-x-x--x-x-1///5-|
D|-0-0-x-0-x-x--x-x-0///0-|

CHROUS
E|--------------------|
B|--------------------|
G|-7-7-x-7-x-7--------|
D|-7-7-x-7-x-7------3-|
A|-5-5-x-5-x-5--3-5-3-|
D|-0-0-x-0-x-0--3-5---|

SOLO w/digitech whammy pedal 
and tremolo picking for each note

E|--------------------------------|
B|-13---10------------------------|
G|----------12---10-----------14--|
D|-------------------12---10------|  
A|--------------------------------|
D|--------------------------------|

E|--------------------------------|
B|-13---10------------------------|
G|----------12---10---------------|
D|-------------------12---10---12-|  
A|--------------------------------|
D|--------------------------------|

E|------------------------------------------|
B|-10h13--10h13-----------------15--17------|
G|--------------------------------------13--|
D|------------------------------------------|  
A|---------------10h12--10h12---------------|
D|------------------------------------------|

BUILD UP  ( tremolo pick each chord )
E|------------------------|
B|------------------------|
G|-7--9-10-12-14-15-17-19-|
D|------------------------|  
A|-5--7--8-10-12-13-15-17-|
D|-0--0--0--0--0--0--0--0-|

OUTRO
E|---------------------------|
B|---------------------------|
G|-8-8-x-8-8-8-8-x-8-8-8-8-x-|
D|-8-8-x-8-8-8-8-x-8-8-8-8-x-|  
A|-6-6-x-6-6-6-6-x-6-6-6-6-x-|
D|-0-0-x-0-0-0-0-x-0-0-0-0-x-|
or something like that

ENDING
E|-------------------------|
B|-------------------------|
G|-7-----------------------|
D|-7-tr--------------------|  
A|-5--------------13-13-13-|
D|-0--------0-0-0----------|


SONG FLOW
*********

INTRO
VERSE
BRIDGE
PRE CHORUS
CHORUS
VERSE (with fill)
BRIDGE
PRE CHORUS
CHORUS
SOLO
BUILD UP
CHORUS
OUTRO
ENDING

plates_210@yahoo.com  if u wanna tell me someething
later... have fun    

Added On December 5th, 2013

SHARE

Comments

blog comments powered by Disqus