Rage Against The Machine Tabs

Take the Power Back

3 versions

TAB

            Artist:RATM
Song:Take The Power Back
Album:Rage Against The Machine
Guitarist:Tom Morello
Tabber: Da Jamm

Slide as you turn up the volume

Intro

-----------------------------------------------------------------|
-----------------------------------------------------------------|
-----------------------------------------------------------------|
-11//////10//////9//////8----------------------7\----------------|
--9//////8-//////7//////6----------------------------------------|
-----------------------------------------------------------------|

Fig.1

-----------------------------------------------------------------|
-----------------------------------------------------------------|
-----------------------------------------------------------------|
-----------------------------------------------------------------|
--------8----8---------8----8---------8----8-----17///////-------|
0-0-8h10-8h10--0-0-8h10-8h10--0-0-8h10-8h10--0-0-17///////-------|

Verse

-----------------------------------------------------------------|
-----------------------------------------------------------------|
----7--7--7--7----x-x-x-5----------7--7--7--7----x-x-x-5---------|
----x--x--x--x----x-x-x-x----------x--x--x--x----x-x-x-x---------|
----5--5--5--5----x-x-x-3----------5--5--5--5----x-x-x-3---------|
-----------------------------------------------------------------|

-----------------------------------------------------------------|
-----------------------------------------------------------------|
----7--7--7--7----x-x-x-5----------7-----------------------------|
----x--x--x--x----x-x-x-x----------x--17\------------------------|
----5--5--5--5----x-x-x-3----------5--17\------------------------|
--------------------------------------17\------------------------|

Chorus:

-----------------------------------------------------------------|
-----------------------------------------------------------------|
-----------------------------------------------------------------|
-----------------------------------------------------------------|
-5-3-4-5-xxxxxxx-------------------------------------------------|
0-0------xxxxxxx-------------------------------------------------|

---------22----22-22---------------------------------------------|
-----------------------------------------------------------------|
-----------------------------------------------------------------|
-----------------------------------------------------------------|
-5-3-4-5---12/---------------------------------------------------|
0-0--------12/---------------------------------------------------|

-----------------------------------------------------------------|
-----------------------------------------------------------------|
-----------------------------------------------------------------|
-----------------------------------------------------------------|
-5-3-4-5--xxx-x-x------------------------------------------------|
0-0-------xxx-x-x------------------------------------------------|

Before solo
----------------------------------------------------|
----------------------------------------------------|
----------------------------------------------------|
----------------------------------------------------|
--------8----8---------8----8---------8----8--------|
0-0-8h10-8h10--0-0-8h10-8h10--0-0-8h10-8h10---------|
pm.....


Solo

-----------------------------------------------------------------|
-13b----13b~~~~-13b-13b---13b---13b~~~~-13b-13b---13b---13b~~~~~-|
-12b------------12b-12b-----------------12b-12b------------------|
-----------------------------------------------------------------|
-----------------------------------------------------------------|
-----------------------------------------------------------------|

---------------------------10------------------------10----------|
--13b--13b------10-13b~~~~----13-11-10~~~~~-10h11h13----13-11-10-|
--12b------------------------------------------------------------|
-----------------------------------------------------------------|
-----------------------------------------------------------------|
-----------------------------------------------------------------|

-----------------------------------------------------------------|
--------------------------------------------------------13h15h17-|
-12-10-9br----------12-14-12----------12h14-14h15h17-17----------|
-----------------14----------15-14h15----------------------------|
-----------------------------------------------------------------|
-----------------------------------------------------------------|

-13-15-17-----13-17-15-13-12-13p12----------------13-------------|
-----------------------------------15-13-15-13-15----15br~~13/15-|
----------/14----------------------------------------------------|
-----------------------------------------------------------------|
-----------------------------------------------------------------|
-----------------------------------------------------------------|

-------15-17-15----------15-17-15----------15-17-15--------------|
-17-18----------18-17-18----------18-17-18----------18-17-18-----|
-----------------------------------------------------------------|
-----------------------------------------------------------------|
-----------------------------------------------------------------|
-----------------------------------------------------------------|

-15-17-19b~~~-19-17-15-------------------------------------------|
-----------------------18-17--15----------15---------------------|
---------------------------------17-16-17----17-16---------------|
---------------------------------------------------19-17-16------|
------------------------------------------------------------17---|
-----------------------------------------------------------------|

-------------------------------------------17/21-19-17-----------------------|
----------------------------------17-15-13-------------18--------------------|
-------------------12-14/18-15-14-------------------------17-16h17p16~~~~----|
----------12-14-15-------------------------------------------------------x-x-|
-12-13-15--------------------------------------------------------------------|
-----------------------------------------------------------------------------|

-----------------------------------------------------------------|
-----------------------------------------------------------------|
-10--10--12------10--------------------------10-10---10-10h12-12-|
-10--10--12-12-x-10-x-x-10h12-x-x------------10-10---10-10h12-12-|
------------------------10h12-----8/10---------------------------|
---------------------------------------10h12---------------------|

-----------------------------------------------------------------|
-----------------------------------------------------------------|
-12------------------------10h12---12--10------------------------|
-12------------------------10h12---12--10---x-10--9--8--7---6-6--|
----------------------------------------9--8--7---6-6--|
-------------------------------------------------------------|

-----------------------------------------------------------------|
-----------------------------------------------------------------|
-21-21-21-21-21-21-----------------------------------------------|
-20-20-20-20-20-20-----------------------------------------------|
-----------------------------------------------------------------|
-----------------------------------------------------------------|

Then:


-----------------------------------------------------------------|
------------------------3b-5b-6b-8b8b8b-3b-5b-6b-8b8b8-----------|
-----------------------------------------------------------------|
-----------------------------------------------------------------|
5-4-3-3-5-3-5-4-3-3-5-3------------------------------------------|
------3-5---------3-5--------------------------------------------|

-----------------------------------------------------------------|
-----------------------------------------------------------------|
-----------------------------------------------------------------|
-----------------------------------------------------------------|
5-4-3-3-5-3-5-4-3-3-5-3------------------------------------------|
------3-5---------3-5--------------------------------------------|

-------------------------------------------------------------------|
-------------------------------------------------------------------|
-------------------------------------------------------------------|
-------------------------------------------------------------------|
-0--0-------0--0---------0--0--x--x--x--x--x--x----0--0------------|
-0--0-------0--0---------0--0--x--x--x--x--x--x----0--0------------|

-----22-2222-----------------------------------------------------|
-----------------------------------------------------------------|
-----------------------------------------------------------------|
-----------------------------------------------------------------|
-0--0-------0--0---------0--0--x--x--x--x--x--x----0--0----------|
-0--0-------0--0---------0--0--x--x--x--x--x--x----0--0----------|

Outro:

x4
-----------------------------------------------------------------|
-----------------------------------------------------------------|
-----------------------------------------------------------------|
---2----2----2----3----3----3----5----5----5----3----3----3----3-|
-3----3----3----3----3----3----3----3----3----3----3----3----3---|
-----------------------------------------------------------------|

x4
-----------------------------------------------------|
-----------------------------------------------------|
-7-6-5-------7-6-5-------7-6-5-----5---5-5-5-5-5-6---|
-7-6-5---x-x-7-6-5---x-x-7-6-5---x-5---5-5-5-5-5-6---|
-7-6-5---x-x-7-6-5---x-x-7-6-5---x-5---5-5-5-5-5-6---|
-----------------------------------------------------|

-----------------------------------------------------|
-----------------------------------------------------|
-7-6-5-------7-6-5-------7-6-5-----5---5-5/7\5/7\5---|
-7-6-5---x-x-7-6-5---x-x-7-6-5---x-5---5-5-7-5-7-5---|
-5-6-5---x-x-7-6-5---x-x-7-6-5---x-5---5-5/7\5/7\5---|
-----------------------------------------------------|

-----------------------------------------------------------------|
----------------------------------------------------7-------7----|
-7-6-5-------7-6-5-------7-6-5-----5---5-5-5-5-5-6--7-------7\---|
-7-6-5---x-x-7-6-5---x-x-7-6-5---x-5---5-5-5-5-5-6--7-------7\---|
-7-6-5---x-x-7-6-5---x-x-7-6-5---x-5---5-5-5-5-5-6--5-------5\---|
-----------------------------------------------------------------|


Thats it, have fun playin!    

Added On December 16th, 2013

SHARE

Comments

blog comments powered by Disqus

VERSIONS

ADVERTISEMENT