Rage Against The Machine Tabs

Testify

5 versions

TAB

            rage against the machine
                               testify
drop d tuning
intro/verse(for gtr.1 play 10 times in verse)4 times for intro
e|---------------------------------|---------------------------------|
b|---------------------------------|--------------------------------o|
g|---------------------------------|---------------------------------|
d|---------------------------------|---------------------------------|
a|---------------------------------|--------------------------------o|
d|--0-0-0-0-0-0-0-0-0-0-0-0-0-0-0-0|-0-0-0-0-0-0-0-0-0-0-0-0-0-0-0-0-|

gtr.2(verse)/(chorus)play twice for chorus
e|---------------|---------------|--------------|----------------|
b|--6------------|---------------|-5------------|-----------12b-o|
g|--5------------|---------------|-6------------|-----------12b--|
d|--x------------|---------------|-x------------|----------------|
a|--5--------3---|---5\3-x-0-----|-5-----0---10-|-0-5/3-x-0-----o|
d|-----3/5-0-----|-0-----x-0-5/3-|---3/5-0-7-10-|-0-----x-0------|
 
 verse#2(8 times with gtr.1)
e|---------------------------------|---------------------------------|
b|---------------------------------|--------------------------------o|
g|---------------------------------|---------------------------------|
d|---------------------------------|---------------------------------|
a|---------------------------------|--------------------------------o|
d|--0-0-0-0-0-0-0-0-0-0-0-0-0-0-0|-0-|0-0-0-0-0-0-0-0-0-0-0-0-0-0-0-0-|

play 8 times(gtr.3)
e|-10---x-x-10--x-x-10--x-x-10--10--x-x-|
b|-x----x-x-x---x-x-x---x-x-x---x---x-xo|
g|-7----x-x-7---x-x-7---x-x-7---7---x-x-|
d|--------------------------------------|
a|-------------------------------------o|
d|--------------------------------------|

 solo
e|---5---|-5---5---5-x-x-x---5---|-5-|-5-5-----5---5-5-----5---|-5-|
b|-6-----|-----------x-x-x-------|-6-|-------------------------|-6-|
g|-x-----|-----------x-x-x-------|-x-|-------------------------|-x-|
d|-x---5-|---5---5---------5---5-|-x-|-------------------------|-x-|
a|-5-----|-----------------------|-5-|-----x-5---5-----x-5---x-|-5-|
d|-------|-----------------------|---|-------------------------|---|

e|-5-5---5---5-x-5------5---|
b|-------------x------------|
g|--------------------------|
d|-----5---5-------x-5----5-|
a|--------------------------|
d|--------------------------|

e|-5-|-5---5---5---5---|------|----------|-----------------|------------|
b|-6-|-----------------|------|----------|-----------------|------------|
g|-x-|-----------------|-10---|-------5--|-----------------|------------|
d|-x-|---5---5---5---5-|-10---|-------5--|-----------------|------------|
a|-5-|-----------------|-8----|-------3--|-0---------------|------------|
d|---|-----------------|------|----------|-0---------------|------------|

e|------------------------|
b|------------------------|
g|------------------------|
d|-12b-12b-12b-12b--------|
a|-12b-12b-12b-12b--------|
d|-12b-12b-12b-12b--------|    

Added On December 16th, 2013

SHARE

Comments

blog comments powered by Disqus

VERSIONS

ADVERTISEMENT