Rage Against The Machine Tabs

Wind Below

2 versions

TAB

            Wind Below
~~~~~~~~~~~~~~~~~~~~~~~~~~~~~~~~~~~~~~~~~~~~~~~~~~~~

Intro/Chorus
|------------------------------------------------------------------|
|------------------------------------------------------------------|
|--4-2-4b---2-2----------------------------------------------------|
|----------------4--3-2-/7-4---6/9---------------------------------|
|------------------------------4/7---------------------------------|
|------------------------------------7-6-7-9-7-6-0--x-x-x--x--x-x--|

Verse (with whammy pedal)
|-------------------------------------------------------|
|-------------------------------------------------------|
|--7h8p7h8p7h8p7h8-3h4p3h4p3h4p3h4-4h5p4h5p4h5p4h5p4h5--|
|-------------------------------------------------------|
|-------------------------------------------------------|
|-------------------------------------------------------|

GUITAR SOLO:
Play three times
|----------------------------7-5-3--|
|----3-5---3-5---3-5---3-5----------|
|--4-----4-----4-----4-----4--------|
|-----------------------------------|
|-----------------------------------|
|-----------------------------------|

Then play this
|-----------------------------------|
|----3-5---4-6---5-7---6-8---7-9-7--|
|--4-----5-----6-----7-----8--------|
|-----------------------------------|
|-----------------------------------|
|-----------------------------------|

|--------------12----------12------11----------11----------11--10--|
|--11--11----------11----------11------10----------10--------------|
|----------12----------12------------------11----------11----------|
|------------------------------------------------------------------|
|------------------------------------------------------------------|
|------------------------------------------------------------------|

|--10---------10---------10-----9--------9------|
|------9----------9----------9-----8------------|
|---------10---------10---------------9-----9\--|
|-----------------------------------------------|
|-----------------------------------------------|
|-----------------------------------------------|

|--12----------12----------12------11----------11---------11------|
|------11----------11----------11------10---------10----------10--|
|----------12----------12------------------11---------11----------|
|-----------------------------------------------------------------|
|-----------------------------------------------------------------|
|-----------------------------------------------------------------|

|--10---------10---------10-----9--------9-----|
|------9----------9----------9-----8-----------|
|---------10---------10---------------9-----9--|
|----------------------------------------------|
|----------------------------------------------|
|----------------------------------------------|

Outro-Chorus
|-------0---------------------0------------------|
|-------0---------------------0------------------|
|-------0---------------------0------------------|
|-------0---------------------0------------------|
|-------0---------------------0------------------|
|--0----3-------------x--0----3-------------/19--|    

Added On December 16th, 2013

SHARE

Comments

blog comments powered by Disqus

VERSIONS

ADVERTISEMENT