Raimon Smit Tabs

Drifting Outdoors

1 versions

TAB

            Raimon Smit
Drifting Outdoors
Dust
www.raimonsmit.tk
www.myspace.com/raimonsmitmuziek

Verses:
|-------------------------------------------------------------------------|
|-------------------------------------------------------------------------|
|---11--------9-----------------------7----5---7--------------------------|
|-9----9---7-----7---5----7---5---7---------------------------------------|
|-------------------------------------------------------------------------|

Chorus:

|-------------------------------------------------------------------------|
|-------------------------------------------------------------------------|
|-----12-----15----12----15----12-----15----17----------------------------|
|-------------------------------------------------------------------------|
|--12-----15-----12----15----12----15-----17-17---------------------------|
|-------------------------------------------------------------------------|

repeat as you go along the song, just listen to it, and you'll ge it.    

Added On December 16th, 2013

SHARE

Comments

blog comments powered by Disqus

ADVERTISEMENT