Raimundos Tabs

Aquela

1 versions

TAB

            Intro:


e|------------------------------------------------------------------|
B|------------------------------------------------------------------|
G|-------------------------------6--6-6--6-6---------------(2x)-----|
D|-------------------2--2-2--2-2-6--6-6--6-6--6--6-6--6-6-----------|
A|--2-2-2-4-2--------2--2-2--2-2-4--4-4--4-4--6--6-6--6-6-----------|
E|------------4-2-----------------------------4--4-4--4-4-----------|

Final da Intro:

e|-------------------|
B|-------------------|
G|--4-6b-6-4---------|
D|-------------------|
A|-------------------|
E|-------------------|


(palm mute)
E                    C#m
  Toquei nela sem querer
         G#m     F#
  ela gritou
E                        C#m
  Quem você pensa que eu sou?
        G#m     F#
  ela falou
E                  C#m
  Bem que eu tentei acalmar,
G#m                      B
  mas não adiantou. Oh, não!
G#m      A                E               B
  Libere seus instintos, girl, vai ser legal.
G#m      A             E             B
  Menininha, eu nunca quis te fazer mal.
G#m           A     G#m      A
  Eu sei que respeito e consideração
F#                       B
  nunca tiveram  nada a ver com tesão.

E                   C#m
  Mas um dia ela pensou
        G#m      F#
  e aceitou
E                    C#m
  Agora quem quer sou eu
        G#m     F#
  ela falou
E                  C#m
  Bem que eu tentei acalmar
G#m                      B
  mas não adiantou. Oh, não!
G#m      A                E               B
  Libere seus instintos, girl, vai ser legal.
G#m      A             E             B
  Menininha, eu nunca quis te fazer mal.
G#m           A     G#m      A
  Eu sei que respeito e consideração
F#                       B
  nunca tiveram  nada a ver com tesão.


 solo: E C#m G#m F# ==>2 x

      E C#m G#m A

E                    C#m
  Toquei nela sem querer
         G#m     F#
  ela gritou
E                        C#m
  Quem você pensa que eu sou?
        G#m     F#
  ela falou
E                  C#m
  Bem que eu tentei acalmar,
G#m                      B
  mas não adiantou. Oh, não!
G#m      A                E               B
  Libere seus instintos, girl, vai ser legal.
G#m      A             E             B
  Menininha, eu nunca quis te fazer mal.
G#m           A     G#m      A
  Eu sei que respeito e consideração
F#                       B
  nunca tiveram  nada a ver com tesão.    

Added On June 11th, 2015

SHARE

Comments

blog comments powered by Disqus

ADVERTISEMENT