Rainald Grebe Tabs

Massenkompatibel

1 versions

TAB

            Hi,
habe eben die Strophe und den Refrain rausgehört. Ein paar Unterschiede von Part zu Part 
es noch und einige Teile sind etwas anders.
Aber das hab ich bisher:

|-------------------------------------------------------------------|
|------3---------3------3--------3----------------------------------|
|----4---4-----4------4---4----4---4--------------------------------|
|--5---------4------2--------4--------------------------------------|
|-------------------------------------------------------------------|
|-------------------------------------------------------------------|
Als ich ein kleiner Junge war, war ich sooft alleine....


|--x-x-x--x-x-x--x-x-x--x-x-x---------------------------------------|
|--3-3-3--3-3-3--3-3-3--3-3-3---------------------------------------|
|--4-4-4--4-4-4--4-4-4--4-3-3---------------------------------------|
|--5-5-5--4-4-4--2-2-2--4-4-4---------------------------------------|
|--x-x-x--x-x-x--x-x-x--x-x-x---------------------------------------|
|--x-x-x--x-x-x--x-x-x--x-x-x---------------------------------------|
-----Ich will doch für alle sein....    

Added On December 16th, 2013

SHARE

Comments

blog comments powered by Disqus

ADVERTISEMENT