Rammstein Tabs

Feuer Und Wasser

7 versions

TAB

            Feuer Und Wasser Tab by Rammstein


----------------------------------------------------------------------------
			     Feuer Und Wasser - Rammstein
----------------------------------------------------------------------------
Tabbed by: Bee-Ay
Email: Leviathan_ben@hotmail.com

Tuning: C-G-C-F-A-D

Hello mates! Here i go again. eeh, well? - Listen to the song for timeing!

Opening riff, with clean guitar:
D|---------------------------------------------------------------|
A|---------------------------------------------------------------|
F|---------------------------------------------------------------|
C|0---0---0---0---0---0---0---0---0---0---0---0---0---0---0---0--|
G|--0---0---0---0---0---0---0---0---0---0---0---0---0---0---0---0|
C|---------------------------------------------------------------|

When Till Begin singing:
D|-------------------|
A|-------------------|
F|-------------------| Repeat this 4 times.
C|3-----5-----7---7--|
G|--5-----7-----8---8|
C|-------------------|

Then:
D|-------------------------|
A|-------------------------|
F|-------------------------|
C|12------10-----8-----8---| 
G|---13------12----10----10|
C|-------------------------|


D|-------------------|
A|-------------------|
F|-------------------| Repeat this 4 times.
C|3-----5-----7---7--|
G|--5-----7-----8---8|
C|-------------------|


D|-------------------------|
A|-------------------------|
F|-------------------------|
C|12------10-----8-----8---| 
G|---13------12----10----10|
C|-------------------------|


D|--------------------------------|
A|--------------------------------|
F|--------------------------------|
C|0---0---0---0---0---0---0---0---|
G|--0---0---0---0---0---0---0----0|
C|--------------------------------|


Clean Chorus:
D|-----------------------------------------------------------|
A|-----------------------------------------------------------|
F|-----------------------------------------------------------|
C|8----8----8----8----5----5----7----7-----0----0----0----0--|
G|--8----8----8----8----5----5----7----7-----0----0----0----0|
C|-----------------------------------------------------------|


D|------------------------------------------------------------|
A|------------------------------------------------------------|
F|------------------------------------------------------------|
C|10----10----10----10------8---8---8---8-----5---5----7---7--|
G|---10----10----10----10-----8---8---8---8-----5---5----7---7|
C|------------------------------------------------------------|


D|---------------------------------------------------|
A|---------------------------------------------------|
F|---------------------------------------------------|
C|3---3---/---7---7---/--12----12----/----10----10---|
G|--0---0------0---0--------10----10---------10----10|
C|---------------------------------------------------|


D|---------------------------------------------------------------------|
A|---------------------------------------------------------------------|
F|---------------------------------------------------------------------|
C|8---8---8---8-----5---5-----7---7-----0---0---0---0---0---0---0---0--|
G|--8---8---8---8-----5---5-----7---7-----0---0---0---0---0---0---0---0|
C|---------------------------------------------------------------------|


Now Chorus with distorsion!
D|-----------------------------------------------|
A|-----------------------------------------------|
F|-----------------------------------------------|
C|8-8-8-8-8-8-8-8-5-5-5-5-7-7-7-7-0-0-0-0-0-0-0-0|
G|8-8-8-8-8-8-8-8-5-5-5-5-7-7-7-7-0-0-0-0-0-0-0-0|
C|8-8-8-8-8-8-8-8-5-5-5-5-7-7-7-7-0-0-0-0-0-0-0-0|


D|-------------------------------------------------------|
A|-------------------------------------------------------|
F|-------------------------------------------------------|
C|10-10-10-10-10-10-10-10-8-8-8-8-8-8-8-8-5-5-5-5-7-7-7-7|
G|10-10-10-10-10-10-10-10-8-8-8-8-8-8-8-8-5-5-5-5-7-7-7-7|
C|10-10-10-10-10-10-10-10-8-8-8-8-8-8-8-8-5-5-5-5-7-7-7-7|

D|-----------------------------------------------|
A|-----------------------------------------------|
F|-----------------------------------------------|
C|8-8-8-8-8-8-8-8-5-5-5-5-7-7-7-7-0-0-0-0-0-0-0-0|
G|8-8-8-8-8-8-8-8-5-5-5-5-7-7-7-7-0-0-0-0-0-0-0-0|
C|8-8-8-8-8-8-8-8-5-5-5-5-7-7-7-7-0-0-0-0-0-0-0-0|


And after some times you do:
D|---------|
A|---------|
F|---------|
C|(0)---0-0|  Repeat 4 times.
G|(0)---0-0|
C|(0)---0-0|
   |    ...
   |     |
   |  Mute these 2 notes.
   |
 Let (0)ring a bit.

And in this part the verse guitar is played too..




AND NOW, YIIIHAAAA! SOLO!
D|----------------------------------10-----12-13-12|
A|---11-10-------------10-11-8---10----------------|
F|--------10--10--10-9-----------------------------|
C|7------------------------------------------------|
G|-------------------------------------------------|
C|-------------------------------------------------|


D|------------10------------------/--15--13--10--12--13-17-15-13-12-10-8/10|
A|---------------------10-11-8---------------------------------------------|
F|---9--10--7----7-7-7-----------------------------------------------------|
C|7------------------------------------------------------------------------|
G|-------------------------------------------------------------------------|
C|-------------------------------------------------------------------------|

Rythm guitar: Chorus.


One of the last times the chorus is played, there is a little change:
D|-----------------------------------------------|
A|-----------------------------------------------|
F|-----------------------------------------------|
C|8-8-8-8-8-8-8-8-5-5-5-5-7-7-7-7-0-0-0-0-0-0-0-0|
G|8-8-8-8-8-8-8-8-5-5-5-5-7-7-7-7-0-0-0-0-0-0-0-0|
C|8-8-8-8-8-8-8-8-5-5-5-5-7-7-7-7-0-0-0-0-0-0-0-0|


D|-----------------------------------------------------------------------|
A|-----------------------------------------------------------------------|
F|-----------------------------------------------------------------------|
C|10-10-10-10-10-10-10-10-8-8-8-8-8-8-8-8-3-3-3-3-3-3-3-3-0-0-0-0-0-0-0-0|
G|10-10-10-10-10-10-10-10-8-8-8-8-8-8-8-8-3-3-3-3-3-3-3-3-0-0-0-0-0-0-0-0|
C|10-10-10-10-10-10-10-10-8-8-8-8-8-8-8-8-3-3-3-3-3-3-3-3-0-0-0-0-0-0-0-0|


End:
D|------------------------------------------------------------|
A|------------------------------------------------------------|
F|------------------------------------------------------------|
C|10-10-10-10-10-10-10-10-8-8-8-8-8-8-8-8-5-5-5-5-7-7-7-7--(0)|
G|10-10-10-10-10-10-10-10-8-8-8-8-8-8-8-8-5-5-5-5-7-7-7-7--(0)|
C|10-10-10-10-10-10-10-10-8-8-8-8-8-8-8-8-5-5-5-5-7-7-7-7--(0)|
                                                            |
                                                            |
                                                            |
                                                   Let ring totaly OUT!


Brilliant song. If comments or anything else, mail me...    

Added On December 5th, 2013

SHARE

Comments

blog comments powered by Disqus