Ramones Tabs

Garden Of Serenity

2 versions

TAB

            Garden Of Serenity Tab by Ramones


Garden of Serenity - The Ramones

Tabbed by: Justin Nguyen
Email: aznonilink@netscape.net

Standard Tuning


Intro ( :00 - :12 ) ( drums come in at :06 )

e|----------------------------------------------|
B|------3--------3--------3----3----------------|
G|----2--------0--------0---0-------------------|
D|--0-----0--3-----3--2----------0--------------|x4
A|----------------------------------------------|
E|----------------------------------------------|



Verse 1 ( :12 - :37 ) *let chords ring*

e|----------------------------------------------|
B|----------------------------------------------|
G|---7-----------------5------------------------|
D|---7---------3-------5------------------------|x2
A|---5---------3-------3------------------------|
E|-------------1--------------------------------|



Chorus ( :37 - :50 )

1st guitar (same as intro)
e|----------------------------------------------|
B|------3--------3--------3----3----------------|
G|----2--------0--------0---0-------------------|
D|--0-----0--3-----3--2----------0--------------|x4
A|----------------------------------------------|
E|----------------------------------------------|


2nd guitar
e|----------------------------------------------|
B|----------------------------------------------|
G|--7-----------------5--------3----------------|
D|--7--------3--------5--------3----------------|x4
A|--5--------3--------3--------1----------------|
E|-----------1----------------------------------|



Repeat intro ( :50 - :56 )

e|----------------------------------------------|
B|------3--------3--------3----3----------------|
G|----2--------0--------0---0-------------------|
D|--0-----0--3-----3--2----------0--------------|x2
A|----------------------------------------------|
E|----------------------------------------------|



Verse 2 ( :57 - 1:21 )

e|----------------------------------------------|
B|----------------------------------------------|
G|---7-----------------5------------------------|
D|---7---------3-------5------------------------|x2
A|---5---------3-------3------------------------| 
E|-------------1--------------------------------|



Chorus ( 1:22 - 1:34 )


1st guitar
e|----------------------------------------------|
B|------3--------3--------3----3----------------|
G|----2--------0--------0---0-------------------|
D|--0-----0--3-----3--2----------0--------------|x4
A|----------------------------------------------|
E|----------------------------------------------|


2nd guitar
e|----------------------------------------------|
B|----------------------------------------------|
G|--7-----------------5--------3----------------|
D|--7--------3--------5--------3----------------|x4
A|--5--------3--------3--------1----------------|
E|-----------1----------------------------------|



Bridge ( 1:35 - 1:53 )

e|------|  |---------------------------------------|
B|------|  |--------3--------3--------3----3-------|
G|---7--|  |------2--------0--------0---0----------|
D|---7--|x2|----0-----0--3-----3--2----------0-----|x4
A|---5--|  |---------------------------------------|
E|------|  |---------------------------------------|
     ^
  let ring



Chorus ( 1:53 - 2:18 )


1st guitar
e|------------------------------------|  |-----------------------------|
B|------3--------3--------3----3------|  |------3--------3--------3-3--|
G|----2--------0--------0---0---------|  |----2--------0--------0------|
D|--0-----0--3-----3--2----------0----|x7|--0-----0--3-----3--2--------|
A|------------------------------------|  |-----------------------------|
E|------------------------------------|  |-----------------------------|
								    

2nd guitar
e|----------------------------------------------|
B|----------------------------------------------|
G|--7-----------------5--------3----------------|
D|--7--------3--------5--------3----------------|x4
A|--5--------3--------3--------1----------------|
E|-----------1----------------------------------|
			       ^
                            let ring


Please rate and comment.

Any suggestions/corrections email me (my email is at the top)    

Added On December 5th, 2013

SHARE

Comments

blog comments powered by Disqus

VERSIONS

ADVERTISEMENT