Ramones Tabs

Ramona

1 versions

TAB

            Intro                        x2 
E------------------------------|
B------------------------------|
G-5--5-5-5-5-5---5-5-5-5-5-5-5-|
D-5--5-5-5-5-5-3-5-5-5-5-5-5-5-|
A-3--3-3-3-3-3-3-3-3-3-3-3-3-3-|
E--------------1---------------|

Verse
E---------------------------------|---------------------------------|
B---------------------------------|---------------------------------|
G---------------------------------|---------------------------------|
D-5-5-5-5-5-5-5-5-3-3-3-3-5-5-5-5-|-5-5-5-5-5-5-5-5-3-3-3-3-5-5-5-5-|
A-3-3-3-3-3-3-3-3-3-3-3-3-5-5-5-5-|-3-3-3-3-3-3-3-3-3-3-3-3-5-5-5-5-|
E-----------------1-1-1-1-3-3-3-3-|-----------------1-1-1-1-3-3-3-3-|

E-----------------------------------------------------------------|
B-----------------------------------------------------------------|
G-----------------5-5-5-5-5-5-5-5---------------------------------|
D-3-3-3-3-3-3-3-3-5-5-5-5-5-5-5-5-3-3-3-3-3-3-3-3-5-5-5-5-5-5-5-5-|
A-3-3-3-3-3-3-3-3-3-3-3-3-3-3-3-3-3-3-3-3-3-3-3-5-5-5-5-5-5-5-5-5-|
E-1-1-1-1-1-1-1-1-----------------1-1-1-1-1-1-1-1-3-3-3-3-3-3-3-3-|

Verse
E---------------------------------|---------------------------------|
B---------------------------------|---------------------------------|
G---------------------------------|---------------------------------|
D-5-5-5-5-5-5-5-5-3-3-3-3-5-5-5-5-|-5-5-5-5-5-5-5-5-3-3-3-3-5-5-5-5-|
A-3-3-3-3-3-3-3-3-3-3-3-3-5-5-5-5-|-3-3-3-3-3-3-3-3-3-3-3-3-5-5-5-5-|
E-----------------1-1-1-1-3-3-3-3-|-----------------1-1-1-1-3-3-3-3-|

E-----------------------------------------------------------------|
B-----------------------------------------------------------------|
G-----------------5-5-5-5-5-5-5-5---------------------------------|
D-3-3-3-3-3-3-3-3-5-5-5-5-5-5-5-5-3-3-3-3-3-3-3-3-5-5-5-5-5-5-5-5-|
A-3-3-3-3-3-3-3-3-3-3-3-3-3-3-3-3-3-3-3-3-3-3-3-5-5-5-5-5-5-5-5-5-|
E-1-1-1-1-1-1-1-1-----------------1-1-1-1-1-1-1-1-3-3-3-3-3-3-3-3-|

Chorus                          x3
E---------------------------------|---------------------------------|
B---------------------------------|---------------------------------|
G-3-3-3-3-3-3-3-3-----------------|-3-3-3-3-3-3-3-3-5-5-5-5-5-5-5-5-|
D-3-3-3-3-3-3-3-3-3-3-3-3-3-3-3-3-|-3-3-3-3-3-3-3-3-5-5-5-5-5-5-5-5-|
A-1-1-1-1-1-1-1-1-3-3-3-3-3-3-3-3-|-1-1-1-1-1-1-1-1-3-3-3-3-3-3-3-3-|
E-----------------1-1-1-1-1-1-1-1-|---------------------------------|

Intro              
E------------------------------|
B------------------------------|
G-5--5-5-5-5-5---5-5-5-5-5-5-5-|
D-5--5-5-5-5-5-3-5-5-5-5-5-5-5-|
A-3--3-3-3-3-3-3-3-3-3-3-3-3-3-|
E--------------1---------------|

Verse
E---------------------------------|---------------------------------|
B---------------------------------|---------------------------------|
G---------------------------------|---------------------------------|
D-5-5-5-5-5-5-5-5-3-3-3-3-5-5-5-5-|-5-5-5-5-5-5-5-5-3-3-3-3-5-5-5-5-|
A-3-3-3-3-3-3-3-3-3-3-3-3-5-5-5-5-|-3-3-3-3-3-3-3-3-3-3-3-3-5-5-5-5-|
E-----------------1-1-1-1-3-3-3-3-|-----------------1-1-1-1-3-3-3-3-|

E-----------------------------------------------------------------|
B-----------------------------------------------------------------|
G-----------------5-5-5-5-5-5-5-5---------------------------------|
D-3-3-3-3-3-3-3-3-5-5-5-5-5-5-5-5-3-3-3-3-3-3-3-3-5-5-5-5-5-5-5-5-|
A-3-3-3-3-3-3-3-3-3-3-3-3-3-3-3-3-3-3-3-3-3-3-3-5-5-5-5-5-5-5-5-5-|
E-1-1-1-1-1-1-1-1-----------------1-1-1-1-1-1-1-1-3-3-3-3-3-3-3-3-|

Chorus                          x3
E---------------------------------|---------------------------------|
B---------------------------------|---------------------------------|
G-3-3-3-3-3-3-3-3-----------------|-3-3-3-3-3-3-3-3-5-5-5-5-5-5-5-5-|
D-3-3-3-3-3-3-3-3-3-3-3-3-3-3-3-3-|-3-3-3-3-3-3-3-3-5-5-5-5-5-5-5-5-|
A-1-1-1-1-1-1-1-1-3-3-3-3-3-3-3-3-|-1-1-1-1-1-1-1-1-3-3-3-3-3-3-3-3-|
E-----------------1-1-1-1-1-1-1-1-|---------------------------------|

Outro                        x2
E------------------------------|
B------------------------------|
G-5--5-5-5-5-5---5-5-5-5-5-5-5-|
D-5--5-5-5-5-5-3-5-5-5-5-5-5-5-|
A-3--3-3-3-3-3-3-3-3-3-3-3-3-3-|
E--------------1---------------|    

Added On December 16th, 2013

SHARE

Comments

blog comments powered by Disqus

ADVERTISEMENT