Ramones Tabs

Swallow My Pride

1 versions

TAB

            Swallow My Pride by the Ramones
(standard tuning)


|------------------------------------|
|------------------------------------|
|-4-4-4-4--------------------4-4-4-4-|
|-4-4-4-4--2-2-2-2--4-4-4-4--4-4-4-4-|
|-2-2-2-2--2-2-2-2--4-4-4-4--2-2-2-2-|
|----------0-0-0-0--2-2-2-2----------|
2 times

|------------------|------------------|------------------------------------|
|------------------|------------------|------------------------------------|
|-4-4-4-4--4-4-4-4-|------------------|------------------------------------|
|-4-4-4-4--4-4-4-4-|-2-2-2-2--4-4-4-4-|-6-6-6-6--6-6-6-6--2-2-2-2--2-2-2-2-|
|-2-2-2-2--2-2-2-2-|-2-2-2-2--4-4-4-4-|-6-6-6-6--6-6-6-6--2-2-2-2--2-2-2-2-|
|------------------|-0-0-0-0--2-2-2-2-|-4-4-4-4--4-4-4-4--0-0-0-0--0-0-0-0-|
I dont know how many times you do this part, a whole bunch

|------------------------------------|
|------------------------------------|
|-4-4-4-4--4-4-4-4-------------------|
|-4-4-4-4--4-4-4-4--2-2-2-2--2-2-2-2-|
|-2-2-2-2--2-2-2-2--2-2-2-2--2-2-2-2-|
|-------------------0-0-0-0--0-0-0-0-|
4 times then back to the first part

|------------------------------------|
|------------------------------------|
|-4-4-4-4--------------------4-4-4-4-|
|-4-4-4-4--2-2-2-2--4-4-4-4--4-4-4-4-|
|-2-2-2-2--2-2-2-2--4-4-4-4--2-2-2-2-|
|----------0-0-0-0--2-2-2-2----------|
2 times    

Added On December 16th, 2013

SHARE

Comments

blog comments powered by Disqus

ADVERTISEMENT