Rancid Tabs

Axiom

2 versions

TAB

            Axiom Tab by Rancid


Artist:Rancid
Song:Axiom
Album:Rancid 2000

Intro First Part (Gtr 1)
E----------------------------------------------------------------------
B----------------------------------------------------------------------
G----8---------12------------------------------------------------------
D-5--8--8--10--12------------------------------------------------------
A-5--6--8--10--10------------------------------------------------------
E-3-----6--8-----------------------------------------------------------

Intro Second Part (Gtr 1)
E----------------------------------------------------------------------
B----------------------------------------------------------------------
G----8-----------------------------------------------------------------
D-5--8--8--10--5-------------------------------------------------------
A-5--6--8--10--5-------------------------------------------------------
E-3-----6--8---3-------------------------------------------------------

Intro Second Part (Gtr 2)
E----------------------------------------------------------------------
B----------------------------------------------------------------------
G----8---------12------------------------------------------------------
D-5--8--8--10--12------------------------------------------------------
A-5--6--8--10----------------------------------------------------------
E-3-----6--8-----------------------------------------------------------

Intro Third Part (Gtr 1 + 2, 1 plays muted, 2 plays normal)
E----------------------------------------------------------------------
B----------------------------------------------------------------------
G---------------10101010-----------------------------------------------
D-101010101010--10101010--10101010--101010101010--8-8-8-8--10101010----
A-101010101010--8-8-8-8---10101010--101010101010--8-8-8-8--10101010----
E-8-8-8-8-8-8-------------8-8-8-8---8-8-8-8-8-8---6-6-6-6--8-8-8-8-----

Long ass bass solo

Then Play Intro Second Part 4x

Chorus (Gtr 1)
E----------------------------------------------------------------------
B----------------------------------------------------------------------
G-8--------------------------------------------------------------------
D-8-8-5----------------------------------------------------------------
A-6-8-5----------------------------------------------------------------
E---6-3----------------------------------------------------------------

Chorus (Gtr 2)
E----------------------------------------------------------------------
B----------------------------------------------------------------------
G-8----12--------------------------------------------------------------
D-8-8--12--------------------------------------------------------------
A-6-8------------------------------------------------------------------
E---6------------------------------------------------------------------

I havent seen tabs for this song on ANY website so i tabbed it. Hope you like! Please Rate.    

Added On December 5th, 2013

SHARE

Comments

blog comments powered by Disqus

VERSIONS

ADVERTISEMENT