Rancid Tabs

Beauty Of The Pool Hall tab

1 versions

TAB

            [Intro]
e|--3--3-3-3-3-3-3--|--6--6-6-6-6-6-6--|--8---8--8--8--8--8--8-|-/15--15-15--15-15--|
B|--3--3-3-3-3-3-3--|--6--6-6-6-6-6-6--|--8---8--8--8--8--8--8-|-/15--15-15--15-15--|
G|--4--4-4-4-4-4-4--|--7--7-7-7-7-7-7--|--9---9--9--9--9--9--9-|-/16--16-16--16-16--|
D|--5--5-5-5-5-5-5--|--8--8-8-8-8-8-8--|-10--10-10-10-10-10-10-|-/17--17-17--17-17--| (x2)
A|------------------|------------------|-----------------------|--------------------|
E|------------------|------------------|-----------------------|--------------------|

[Verse 1]
e|----------------|----------------|----------------|----------------|
B|----------------|----------------|----------------|----------------|
G|----------------|-5--5-5-5-5-5-5-|----------------|----------------|
D|-5--5-5-5-5-5-5-|-5--5-5-5-5-5-5-|-5--5-5-5-5-5-5-|-5--5-5-5-5-5-5-|
A|-5--5-5-5-5-5-5-|-3--3-3-3-3-3-3-|-5--5-5-5-5-5-5-|-5--5-5-5-5-5-5-|
E|-3--3-3-3-3-3-3-|----------------|-3--3-3-3-3-3-3-|-3--3-3-3-3-3-3-|
         PM              PM               PM               PM 
e|----------------|----------------|----------------|----------------|
B|----------------|----------------|----------------|----------------|
G|-5--5-5-5-5-5-5-|-7--7-7-7-7-7-7-|----------------|----------------|
D|-5--5-5-5-5-5-5-|-7--7-7-7-7-7-7-|-5--5-5-5-5-5-5-|-5--5-5-5-5-5-5-|
A|-3--3-3-3-3-3-3-|-5--5-5-5-5-5-5-|-5--5-5-5-5-5-5-|-5--5-5-5-5-5-5-|
E|----------------|----------------|-3--3-3-3-3-3-3-|-3--3-3-3-3-3-3-|
         PM              PM               PM               PM 
e|----------------|----------------|----------------|----------------|
B|----------------|----------------|----------------|----------------|
G|----------------|-5--5-5-5-5-5-5-|----------------|----------------|
D|-5--5-5-5-5-5-5-|-5--5-5-5-5-5-5-|-5--5-5-5-5-5-5-|-5--5-5-5-5-5-5-|
A|-5--5-5-5-5-5-5-|-3--3-3-3-3-3-3-|-5--5-5-5-5-5-5-|-5--5-5-5-5-5-5-|
E|-3--3-3-3-3-3-3-|----------------|-3--3-3-3-3-3-3-|-3--3-3-3-3-3-3-|
         PM              PM               PM               PM 
e|----------------|----------------|----------------|----------------|
B|----------------|----------------|----------------|----------------|
G|-5--5-5-5-5-5-5-|-7--7-7-7-7-7-7-|----------------|----------------|
D|-5--5-5-5-5-5-5-|-7--7-7-7-7-7-7-|-5--5-5-5-5-5-5-|-5--5-5-5-5-5-5-|
A|-3--3-3-3-3-3-3-|-5--5-5-5-5-5-5-|-5--5-5-5-5-5-5-|-5--5-5-5-5-5-5-|
E|----------------|----------------|-3--3-3-3-3-3-3-|-3--3-3-3-3-3-3-|
         PM              PM               PM               PM 

[Chorus 1]
e|----------------|----------------|----------------|----------------|
B|----------------|----------------|----------------|----------------|
G|-5--5-5-5-5-5-5-|-5--5-5-5-5-5-5-|-5--5-5-5-5-5-5-|-5--5-5-5-5-5-5-|
D|-5--5-5-5-5-5-5-|-5--5-5-5-5-5-5-|-5--5-5-5-5-5-5-|-5--5-5-5-5-5-5-|
A|-3--3-3-3-3-3-3-|-3--3-3-3-3-3-3-|-3--3-3-3-3-3-3-|-3--3-3-3-3-3-3-|
E|----------------|----------------|----------------|----------------|

e|----------------|----------------|----------------|----------------|
B|----------------|----------------|----------------|----------------|
G|----------------|----------------|----------------|----------------|
D|-5--5-5-5-5-5-5-|-5--5-5-5-5-5-5-|-5--5-5-5-5-5-5-|-5--5-5-5-5-5-5-|
A|-5--5-5-5-5-5-5-|-5--5-5-5-5-5-5-|-5--5-5-5-5-5-5-|-5--5-5-5-5-5-5-|
E|-3--3-3-3-3-3-3-|-3--3-3-3-3-3-3-|-3--3-3-3-3-3-3-|-3--3-3-3-3-3-3-|

e|----------------|----------------|----------------|----------------|
B|----------------|----------------|----------------|----------------|
G|-5--5-5-5-5-5-5-|-5--5-5-5-5-5-5-|-5--5-5-5-5-5-5-|-5--5-5-5-5-5-5-|
D|-5--5-5-5-5-5-5-|-5--5-5-5-5-5-5-|-5--5-5-5-5-5-5-|-5--5-5-5-5-5-5-|
A|-3--3-3-3-3-3-3-|-3--3-3-3-3-3-3-|-3--3-3-3-3-3-3-|-3--3-3-3-3-3-3-|
E|----------------|----------------|----------------|----------------|

e|----------------|----------------|----------------|----------------|
B|----------------|----------------|----------------|----------------|
G|----------------|----------------|-7--7-7-7-7-7-7-|-7--7-7-7-7-7-7-|
D|-5--5-5-5-5-5-5-|-5--5-5-5-5-5-5-|-7--7-7-7-7-7-7-|-7--7-7-7-7-7-7-|
A|-5--5-5-5-5-5-5-|-5--5-5-5-5-5-5-|-5--5-5-5-5-5-5-|-5--5-5-5-5-5-5-|
E|-3--3-3-3-3-3-3-|-3--3-3-3-3-3-3-|----------------|----------------|

[Bridge]
e|--3--3-3-3-3-3-3--|--6--6-6-6-6-6-6--|--8---8--8--8--8--8--8-|-/15--15-15--15-15--|
B|--3--3-3-3-3-3-3--|--6--6-6-6-6-6-6--|--8---8--8--8--8--8--8-|-/15--15-15--15-15--|
G|--4--4-4-4-4-4-4--|--7--7-7-7-7-7-7--|--9---9--9--9--9--9--9-|-/16--16-16--16-16--|
D|--5--5-5-5-5-5-5--|--8--8-8-8-8-8-8--|-10--10-10-10-10-10-10-|-/17--17-17--17-17--| (x2)
A|------------------|------------------|-----------------------|--------------------|
E|------------------|------------------|-----------------------|--------------------|

[Verse 2]
e|----------------|----------------|----------------|----------------|
B|----------------|----------------|----------------|----------------|
G|----------------|-5--5-5-5-5-5-5-|----------------|----------------|
D|-5--5-5-5-5-5-5-|-5--5-5-5-5-5-5-|-5--5-5-5-5-5-5-|-5--5-5-5-5-5-5-|
A|-5--5-5-5-5-5-5-|-3--3-3-3-3-3-3-|-5--5-5-5-5-5-5-|-5--5-5-5-5-5-5-|
E|-3--3-3-3-3-3-3-|----------------|-3--3-3-3-3-3-3-|-3--3-3-3-3-3-3-|

e|----------------|----------------|----------------|----------------|
B|----------------|----------------|----------------|----------------|
G|-5--5-5-5-5-5-5-|-7--7-7-7-7-7-7-|----------------|----------------|
D|-5--5-5-5-5-5-5-|-7--7-7-7-7-7-7-|-5--5-5-5-5-5-5-|-5--5-5-5-5-5-5-|
A|-3--3-3-3-3-3-3-|-5--5-5-5-5-5-5-|-5--5-5-5-5-5-5-|-5--5-5-5-5-5-5-|
E|----------------|----------------|-3--3-3-3-3-3-3-|-3--3-3-3-3-3-3-|
    
e|----------------|----------------|----------------|----------------|
B|----------------|----------------|----------------|----------------|
G|----------------|-5--5-5-5-5-5-5-|----------------|----------------|
D|-5--5-5-5-5-5-5-|-5--5-5-5-5-5-5-|-5--5-5-5-5-5-5-|-5--5-5-5-5-5-5-|
A|-5--5-5-5-5-5-5-|-3--3-3-3-3-3-3-|-5--5-5-5-5-5-5-|-5--5-5-5-5-5-5-|
E|-3--3-3-3-3-3-3-|----------------|-3--3-3-3-3-3-3-|-3--3-3-3-3-3-3-|
    
e|----------------|----------------|----------------|----------------|
B|----------------|----------------|----------------|----------------|
G|-5--5-5-5-5-5-5-|-7--7-7-7-7-7-7-|----------------|----------------|
D|-5--5-5-5-5-5-5-|-7--7-7-7-7-7-7-|-5--5-5-5-5-5-5-|-5--5-5-5-5-5-5-|
A|-3--3-3-3-3-3-3-|-5--5-5-5-5-5-5-|-5--5-5-5-5-5-5-|-5--5-5-5-5-5-5-|
E|----------------|----------------|-3--3-3-3-3-3-3-|-3--3-3-3-3-3-3-|
     
[Chorus 2]
e|----------------|----------------|----------------|----------------|
B|----------------|----------------|----------------|----------------|
G|-5--5-5-5-5-5-5-|-5--5-5-5-5-5-5-|-5--5-5-5-5-5-5-|-5--5-5-5-5-5-5-|
D|-5--5-5-5-5-5-5-|-5--5-5-5-5-5-5-|-5--5-5-5-5-5-5-|-5--5-5-5-5-5-5-|
A|-3--3-3-3-3-3-3-|-3--3-3-3-3-3-3-|-3--3-3-3-3-3-3-|-3--3-3-3-3-3-3-|
E|----------------|----------------|----------------|----------------|

e|----------------|----------------|----------------|----------------|
B|----------------|----------------|----------------|----------------|
G|----------------|----------------|----------------|----------------|
D|-5--5-5-5-5-5-5-|-5--5-5-5-5-5-5-|-5--5-5-5-5-5-5-|-5--5-5-5-5-5-5-|
A|-5--5-5-5-5-5-5-|-5--5-5-5-5-5-5-|-5--5-5-5-5-5-5-|-5--5-5-5-5-5-5-|
E|-3--3-3-3-3-3-3-|-3--3-3-3-3-3-3-|-3--3-3-3-3-3-3-|-3--3-3-3-3-3-3-|

e|----------------|----------------|----------------|----------------|
B|----------------|----------------|----------------|----------------|
G|-5--5-5-5-5-5-5-|-5--5-5-5-5-5-5-|-5--5-5-5-5-5-5-|-5--5-5-5-5-5-5-|
D|-5--5-5-5-5-5-5-|-5--5-5-5-5-5-5-|-5--5-5-5-5-5-5-|-5--5-5-5-5-5-5-|
A|-3--3-3-3-3-3-3-|-3--3-3-3-3-3-3-|-3--3-3-3-3-3-3-|-3--3-3-3-3-3-3-|
E|----------------|----------------|----------------|----------------|

e|----------------|----------------|----------------|----------------|
B|----------------|----------------|----------------|----------------|
G|----------------|----------------|-7--7-7-7-7-7-7-|-7--7-7-7-7-7-7-|
D|-5--5-5-5-5-5-5-|-5--5-5-5-5-5-5-|-7--7-7-7-7-7-7-|-7--7-7-7-7-7-7-|
A|-5--5-5-5-5-5-5-|-5--5-5-5-5-5-5-|-5--5-5-5-5-5-5-|-5--5-5-5-5-5-5-|
E|-3--3-3-3-3-3-3-|-3--3-3-3-3-3-3-|----------------|----------------|

[Verse 3]
(Clean tone)
e|----------------|----------------|----------------|----------------|
B|----------------|----------------|----------------|----------------|
G|----------------|-5--5-5-5-5-5-5-|----------------|----------------|
D|-5--5-5-5-5-5-5-|-5--5-5-5-5-5-5-|-5--5-5-5-5-5-5-|-5--5-5-5-5-5-5-|
A|-5--5-5-5-5-5-5-|-3--3-3-3-3-3-3-|-5--5-5-5-5-5-5-|-5--5-5-5-5-5-5-|
E|-3--3-3-3-3-3-3-|----------------|-3--3-3-3-3-3-3-|-3--3-3-3-3-3-3-|

e|----------------|----------------|----------------|----------------|
B|----------------|----------------|----------------|----------------|
G|-5--5-5-5-5-5-5-|-7--7-7-7-7-7-7-|----------------|----------------|
D|-5--5-5-5-5-5-5-|-7--7-7-7-7-7-7-|-5--5-5-5-5-5-5-|-5--5-5-5-5-5-5-|
A|-3--3-3-3-3-3-3-|-5--5-5-5-5-5-5-|-5--5-5-5-5-5-5-|-5--5-5-5-5-5-5-|
E|----------------|----------------|-3--3-3-3-3-3-3-|-3--3-3-3-3-3-3-|
    
e|----------------|----------------|----------------|----------------|
B|----------------|----------------|----------------|----------------|
G|----------------|-5--5-5-5-5-5-5-|----------------|----------------|
D|-5--5-5-5-5-5-5-|-5--5-5-5-5-5-5-|-5--5-5-5-5-5-5-|-5--5-5-5-5-5-5-|
A|-5--5-5-5-5-5-5-|-3--3-3-3-3-3-3-|-5--5-5-5-5-5-5-|-5--5-5-5-5-5-5-|
E|-3--3-3-3-3-3-3-|----------------|-3--3-3-3-3-3-3-|-3--3-3-3-3-3-3-|
    
e|----------------|----------------|----------------|----------------|
B|----------------|----------------|----------------|----------------|
G|-5--5-5-5-5-5-5-|-7--7-7-7-7-7-7-|----------------|----------------|
D|-5--5-5-5-5-5-5-|-7--7-7-7-7-7-7-|-5--5-5-5-5-5-5-|-5--5-5-5-5-5-5-|
A|-3--3-3-3-3-3-3-|-5--5-5-5-5-5-5-|-5--5-5-5-5-5-5-|-5--5-5-5-5-5-5-|
E|----------------|----------------|-3--3-3-3-3-3-3-|-3--3-3-3-3-3-3-|
     
[Chorus 3]
e|----------------|----------------|----------------|----------------|
B|----------------|----------------|----------------|----------------|
G|-5--5-5-5-5-5-5-|-5--5-5-5-5-5-5-|-5--5-5-5-5-5-5-|-5--5-5-5-5-5-5-|
D|-5--5-5-5-5-5-5-|-5--5-5-5-5-5-5-|-5--5-5-5-5-5-5-|-5--5-5-5-5-5-5-|
A|-3--3-3-3-3-3-3-|-3--3-3-3-3-3-3-|-3--3-3-3-3-3-3-|-3--3-3-3-3-3-3-|
E|----------------|----------------|----------------|----------------|

e|----------------|----------------|----------------|----------------|
B|----------------|----------------|----------------|----------------|
G|----------------|----------------|----------------|----------------|
D|-5--5-5-5-5-5-5-|-5--5-5-5-5-5-5-|-5--5-5-5-5-5-5-|-5--5-5-5-5-5-5-|
A|-5--5-5-5-5-5-5-|-5--5-5-5-5-5-5-|-5--5-5-5-5-5-5-|-5--5-5-5-5-5-5-|
E|-3--3-3-3-3-3-3-|-3--3-3-3-3-3-3-|-3--3-3-3-3-3-3-|-3--3-3-3-3-3-3-|

e|----------------|----------------|----------------|----------------|
B|----------------|----------------|----------------|----------------|
G|-5--5-5-5-5-5-5-|-5--5-5-5-5-5-5-|-5--5-5-5-5-5-5-|-5--5-5-5-5-5-5-|
D|-5--5-5-5-5-5-5-|-5--5-5-5-5-5-5-|-5--5-5-5-5-5-5-|-5--5-5-5-5-5-5-|
A|-3--3-3-3-3-3-3-|-3--3-3-3-3-3-3-|-3--3-3-3-3-3-3-|-3--3-3-3-3-3-3-|
E|----------------|----------------|----------------|----------------|

e|----------------|----------------|----------------|----------------|
B|----------------|----------------|----------------|----------------|
G|----------------|----------------|-7--7-7-7-7-7-7-|-7--7-7-7-7-7-7-|
D|-5--5-5-5-5-5-5-|-5--5-5-5-5-5-5-|-7--7-7-7-7-7-7-|-7--7-7-7-7-7-7-|
A|-5--5-5-5-5-5-5-|-5--5-5-5-5-5-5-|-5--5-5-5-5-5-5-|-5--5-5-5-5-5-5-|
E|-3--3-3-3-3-3-3-|-3--3-3-3-3-3-3-|----------------|----------------|

[Outro]
e|--3--3-3-3-3-3-3--|--6--6-6-6-6-6-6--|--8---8--8--8--8--8--8-|-/15--15-15--15-15--|
B|--3--3-3-3-3-3-3--|--6--6-6-6-6-6-6--|--8---8--8--8--8--8--8-|-/15--15-15--15-15--|
G|--4--4-4-4-4-4-4--|--7--7-7-7-7-7-7--|--9---9--9--9--9--9--9-|-/16--16-16--16-16--|
D|--5--5-5-5-5-5-5--|--8--8-8-8-8-8-8--|-10--10-10-10-10-10-10-|-/17--17-17--17-17--|
A|------------------|------------------|-----------------------|--------------------|
E|------------------|------------------|-----------------------|--------------------|

e|--3--3-3-3-3-3-3--|--6--6-6-6-6-6-6--|--8---8--8--8--8--8--8-|-/15--|
B|--3--3-3-3-3-3-3--|--6--6-6-6-6-6-6--|--8---8--8--8--8--8--8-|-/15--|
G|--4--4-4-4-4-4-4--|--7--7-7-7-7-7-7--|--9---9--9--9--9--9--9-|-/16--|
D|--5--5-5-5-5-5-5--|--8--8-8-8-8-8-8--|-10--10-10-10-10-10-10-|-/17--|
A|------------------|------------------|-----------------------|------|
E|------------------|------------------|-----------------------|------|


************************************

| /   Slide up
| PM  Palm mute

************************************    

Added On October 12th, 2017

SHARE

Comments

blog comments powered by Disqus

ADVERTISEMENT