Rancid Tabs

Buddy tab

1 versions

TAB

            [Intro]
e|--------------------------|--------------------------|
B|--------------------------|--------------------------|
G|--------------------------|--------------------------|
D|-12--12-12-12-12-12-12-12-|-12--12-12-12-12-12-12-12-| (x4)
A|-12--12-12-12-12-12-12-12-|-12--12-12-12-12-12-12-12-|
E|-10--10-10-10-10-10-10-10-|-10--10-10-10-10-10-10-10-|
            PM                         PM

[Verse 1]
e|--------------------------|--------------------------|
B|--------------------------|--------------------------|
G|--------------------------|--------------------------|
D|-12--12-12-12-12-12-12-12-|-12--12-12-12-12-12-12-12-| (x2)
A|-12--12-12-12-12-12-12-12-|-12--12-12-12-12-12-12-12-|
E|-10--10-10-10-10-10-10-10-|-10--10-10-10-10-10-10-10-|
            PM                         PM

e|------------------|------------------|
B|------------------|------------------|
G|------------------|------------------|
D|-5--5-5-5-5-5-5-5-|-5--5-5-5-5-5-5-5-|
A|-5--5-5-5-5-5-5-5-|-5--5-5-5-5-5-5-5-|
E|-3--3-3-3-3-3-3-3-|-3--3-3-3-3-3-3-3-|
          PM               PM

e|--------------------------|--------------------------|
B|--------------------------|--------------------------|
G|--------------------------|--------------------------|
D|-12--12-12-12-12-12-12-12-|-12--12-12-12-12-12-12-12-| (x4)
A|-12--12-12-12-12-12-12-12-|-12--12-12-12-12-12-12-12-|
E|-10--10-10-10-10-10-10-10-|-10--10-10-10-10-10-10-10-|
            PM                         PM

e|---------------------|-----------------|
B|---------------------|-----------------|
G|---------------------|-----------------|
D|-2--2-2--2-2--2--2-2-|-7-7-7-7-7-7-7-7-|
A|-2--2-2--2-2--2--2-2-|-7-7-7-7-7-7-7-7-|
E|-0--0-0--0-0--0--0-0-|-5-5-5-5-5-5-5-5-|
          PM

[Chorus 1]
e|-----------------|-------------------------|-----------------|-------------------------|
B|-----------------|-------------------------|-----------------|-------------------------|
G|-----------------|-------------------------|-----------------|-------------------------|
D|-5-5-5-5-5-5-5-5-|-12-12-12-12-12-12-12-12-|-5-5-5-5-5-5-5-5-|-12-12-12-12-12-12-12-12-|
A|-5-5-5-5-5-5-5-5-|-12-12-12-12-12-12-12-12-|-5-5-5-5-5-5-5-5-|-12-12-12-12-12-12-12-12-|
E|-3-3-3-3-3-3-3-3-|-10-10-10-10-10-10-10-10-|-3-3-3-3-3-3-3-3-|-10-10-10-10-10-10-10-10-|

e|-------------------------|-----------------|-----------------|-------------------------|
B|-------------------------|-----------------|-----------------|-------------------------|
G|-------------------------|-----------------|-----------------|-------------------------|
D|-12-12-12-12-12-12-12-12-|-7-7-7-7-7-7-7-7-|-5-5-5-5-5-5-5-5-|-12-12-12-12-12-12-12-12-|
A|-12-12-12-12-12-12-12-12-|-7-7-7-7-7-7-7-7-|-5-5-5-5-5-5-5-5-|-12-12-12-12-12-12-12-12-|
E|-10-10-10-10-10-10-10-10-|-5-5-5-5-5-5-5-5-|-3-3-3-3-3-3-3-3-|-10-10-10-10-10-10-10-10-|

[Solo 1]
e|--------------------7---------------|
B|---------7-5----5-7-8--8-7--7-5-----|
G|-4--6/7------6------7------------7--|
D|------------------------------------|
A|------------------------------------|
E|------------------------------------|

[Verse 2]
e|--------------------------|--------------------------|
B|--------------------------|--------------------------|
G|--------------------------|--------------------------|
D|-12--12-12-12-12-12-12-12-|-12--12-12-12-12-12-12-12-| (x2)
A|-12--12-12-12-12-12-12-12-|-12--12-12-12-12-12-12-12-|
E|-10--10-10-10-10-10-10-10-|-10--10-10-10-10-10-10-10-|
            PM                         PM

e|------------------|------------------|
B|------------------|------------------|
G|------------------|------------------|
D|-5--5-5-5-5-5-5-5-|-5--5-5-5-5-5-5-5-|
A|-5--5-5-5-5-5-5-5-|-5--5-5-5-5-5-5-5-|
E|-3--3-3-3-3-3-3-3-|-3--3-3-3-3-3-3-3-|
          PM               PM

e|--------------------------|--------------------------|
B|--------------------------|--------------------------|
G|--------------------------|--------------------------|
D|-12--12-12-12-12-12-12-12-|-12--12-12-12-12-12-12-12-| (x4)
A|-12--12-12-12-12-12-12-12-|-12--12-12-12-12-12-12-12-|
E|-10--10-10-10-10-10-10-10-|-10--10-10-10-10-10-10-10-|

e|---------------------|-----------------|
B|---------------------|-----------------|
G|---------------------|-----------------|
D|-2--2-2--2-2--2--2-2-|-7-7-7-7-7-7-7-7-|
A|-2--2-2--2-2--2--2-2-|-7-7-7-7-7-7-7-7-|
E|-0--0-0--0-0--0--0-0-|-5-5-5-5-5-5-5-5-|
          PM

[Chorus 2]
e|-----------------|-------------------------|-----------------|-------------------------|
B|-----------------|-------------------------|-----------------|-------------------------|
G|-----------------|-------------------------|-----------------|-------------------------|
D|-5-5-5-5-5-5-5-5-|-12-12-12-12-12-12-12-12-|-5-5-5-5-5-5-5-5-|-12-12-12-12-12-12-12-12-|
A|-5-5-5-5-5-5-5-5-|-12-12-12-12-12-12-12-12-|-5-5-5-5-5-5-5-5-|-12-12-12-12-12-12-12-12-|
E|-3-3-3-3-3-3-3-3-|-10-10-10-10-10-10-10-10-|-3-3-3-3-3-3-3-3-|-10-10-10-10-10-10-10-10-|

e|-------------------------|-----------------|-----------------|-------------------------|
B|-------------------------|-----------------|-----------------|-------------------------|
G|-------------------------|-----------------|-----------------|-------------------------|
D|-12-12-12-12-12-12-12-12-|-7-7-7-7-7-7-7-7-|-5-5-5-5-5-5-5-5-|-12-12-12-12-12-12-12-12-|
A|-12-12-12-12-12-12-12-12-|-7-7-7-7-7-7-7-7-|-5-5-5-5-5-5-5-5-|-12-12-12-12-12-12-12-12-|
E|-10-10-10-10-10-10-10-10-|-5-5-5-5-5-5-5-5-|-3-3-3-3-3-3-3-3-|-10-10-10-10-10-10-10-10-|

[Solo 2]
e|--------------------7---------------|
B|---------7-5----5-7-8--8-7--7-5-----|
G|-4--6/7------6------7------------7--|
D|------------------------------------|
A|------------------------------------|
E|------------------------------------|

[Interlude]
e|------------------|------------------|------------------|------------------|
B|------------------|------------------|------------------|------------------|
G|------------------|------------------|------------------|------------------|
D|-5--5-5-5-5-5-5-5-|-5--5-5-5-5-5-5-5-|-5--5-5-5-5-5-5-5-|-5--5-5-5-5-5-5-5-|
A|-5--5-5-5-5-5-5-5-|-5--5-5-5-5-5-5-5-|-5--5-5-5-5-5-5-5-|-5--5-5-5-5-5-5-5-|
E|-3--3-3-3-3-3-3-3-|-3--3-3-3-3-3-3-3-|-3--3-3-3-3-3-3-3-|-3--3-3-3-3-3-3-3-|
          PM               PM                   PM                 PM

e|--------------------------|--------------------------|
B|--------------------------|--------------------------|
G|--------------------------|--------------------------|
D|-12--12-12-12-12-12-12-12-|-12--12-12-12-12-12-12-12-| (x2)
A|-12--12-12-12-12-12-12-12-|-12--12-12-12-12-12-12-12-|
E|-10--10-10-10-10-10-10-10-|-10--10-10-10-10-10-10-10-|
            PM                         PM

e|---------------------|---------------------|---------------------|---------------------|
B|---------------------|---------------------|---------------------|---------------------|
G|---------------------|---------------------|---------------------|---------------------|
D|-2--2-2--2-2--2--2-2-|-2--2-2--2-2--2--2-2-|-2--2-2--2-2--2--2-2-|-2--2-2--2-2--2--2-2-|
A|-2--2-2--2-2--2--2-2-|-2--2-2--2-2--2--2-2-|-2--2-2--2-2--2--2-2-|-2--2-2--2-2--2--2-2-|
E|-0--0-0--0-0--0--0-0-|-0--0-0--0-0--0--0-0-|-0--0-0--0-0--0--0-0-|-0--0-0--0-0--0--0-0-|
          PM                     PM                    PM                     PM

e|-----------------|-----------------|-----------------|-----------------|
B|-----------------|-----------------|-----------------|-----------------|
G|-----------------|-----------------|-----------------|-----------------|
D|-7-7-7-7-7-7-7-7-|-7-7-7-7-7-7-7-7-|-7-7-7-7-7-7-7-7-|-7-7-7-7-7-7-7-7-|
A|-7-7-7-7-7-7-7-7-|-7-7-7-7-7-7-7-7-|-7-7-7-7-7-7-7-7-|-7-7-7-7-7-7-7-7-|
E|-5-5-5-5-5-5-5-5-|-5-5-5-5-5-5-5-5-|-5-5-5-5-5-5-5-5-|-5-5-5-5-5-5-5-5-|

[Verse 3]
e|--------------------------|--------------------------|
B|--------------------------|--------------------------|
G|--------------------------|--------------------------|
D|-12--12-12-12-12-12-12-12-|-12--12-12-12-12-12-12-12-| (x2)
A|-12--12-12-12-12-12-12-12-|-12--12-12-12-12-12-12-12-|
E|-10--10-10-10-10-10-10-10-|-10--10-10-10-10-10-10-10-|
            PM                         PM

e|------------------|------------------|
B|------------------|------------------|
G|------------------|------------------|
D|-5--5-5-5-5-5-5-5-|-5--5-5-5-5-5-5-5-|
A|-5--5-5-5-5-5-5-5-|-5--5-5-5-5-5-5-5-|
E|-3--3-3-3-3-3-3-3-|-3--3-3-3-3-3-3-3-|
          PM               PM

e|--------------------------|--------------------------|
B|--------------------------|--------------------------|
G|--------------------------|--------------------------|
D|-12--12-12-12-12-12-12-12-|-12--12-12-12-12-12-12-12-| (x2)
A|-12--12-12-12-12-12-12-12-|-12--12-12-12-12-12-12-12-|
E|-10--10-10-10-10-10-10-10-|-10--10-10-10-10-10-10-10-|
            PM                         PM

e|---------------------|-----------------|
B|---------------------|-----------------|
G|---------------------|-----------------|
D|-2--2-2--2-2--2--2-2-|-7-7-7-7-7-7-7-7-|
A|-2--2-2--2-2--2--2-2-|-7-7-7-7-7-7-7-7-|
E|-0--0-0--0-0--0--0-0-|-5-5-5-5-5-5-5-5-|
          PM

[Chorus 3]
e|-----------------|-------------------------|-----------------|-------------------------|
B|-----------------|-------------------------|-----------------|-------------------------|
G|-----------------|-------------------------|-----------------|-------------------------|
D|-5-5-5-5-5-5-5-5-|-12-12-12-12-12-12-12-12-|-5-5-5-5-5-5-5-5-|-12-12-12-12-12-12-12-12-|
A|-5-5-5-5-5-5-5-5-|-12-12-12-12-12-12-12-12-|-5-5-5-5-5-5-5-5-|-12-12-12-12-12-12-12-12-|
E|-3-3-3-3-3-3-3-3-|-10-10-10-10-10-10-10-10-|-3-3-3-3-3-3-3-3-|-10-10-10-10-10-10-10-10-|

e|--10---5---3---10--|--10---5---3------|
B|--10---5---3---10--|--10---5---3------|
G|--11---6---4---11--|--11---6---4------|
D|--12---7---5---12--|--12---7---5--\\--|
A|--12---7---5---12--|--12---7---5--\\--|
E|--10---5---3---10--|--10---5---3--\\--|

[Bridge]
e|-------------------------|-----------------|-----------------|-------------------------|
B|-------------------------|-----------------|-----------------|-------------------------|
G|-------------------------|-----------------|-----------------|-------------------------|
D|-12-12-12-12-12-12-12-12-|-7-7-7-7-7-7-7-7-|-5-5-5-5-5-5-5-5-|-12-12-12-12-12-12-12-12-| (x2)
A|-12-12-12-12-12-12-12-12-|-7-7-7-7-7-7-7-7-|-5-5-5-5-5-5-5-5-|-12-12-12-12-12-12-12-12-|
E|-10-10-10-10-10-10-10-10-|-5-5-5-5-5-5-5-5-|-3-3-3-3-3-3-3-3-|-10-10-10-10-10-10-10-10-|

[Solo 3]
e|--------------------|--------------------------|---------------------|
B|-7h8p7h8--10--8--7--|-7h8p7h8--10--8--7----7---|-7-8--8-7------7-----|
G|--------------------|--------------------9---9-|----------9b11---9-7-|
D|--------------------|--------------------------|---------------------|
A|--------------------|--------------------------|---------------------|
E|--------------------|--------------------------|---------------------|

e|---------------------|----------------------------|------------|
B|-7h8p7h8--10--8--7---|-7h8p7h8--10--8--7---7---7--|-7-8-7--7---|
G|-------------------9-|-------------------9---9----|----------9-|
D|---------------------|----------------------------|------------|
A|---------------------|----------------------------|------------|
E|---------------------|----------------------------|------------|

e|-------------------------|--------------------|--------------------------|--------------------------|
B|-----------------7-------|-----------------7--|-7h8p7h8--10/14--12-12-10-|-10/14--14\12--12\10--10--|
G|---6-7--7-9-7-9----9-9-7-|----6-7--7-9-7-9----|--------------------------|--------------------------|
D|-9-----------------------|--9-----------------|--------------------------|--------------------------|
A|-------------------------|--------------------|--------------------------|--------------------------|
E|-------------------------|--------------------|--------------------------|--------------------------|

[Outro]
e|----------------------------------------|-----------------------------------------|
B|----------------------------------------|-----------------------------------------|
G|----------------------------------------|-----------------------------------------|
D|--12---12---12---12---12---12---12---12-|--12-12-12-12-12-12-12-12-12-12-12---12--|
A|--12---12---12---12---12---12---12---12-|--12-12-12-12-12-12-12-12-12-12-12---12--|
E|--10---10---10---10---10---10---10---10-|--10-10-10-10-10-10-10-10-10-10-10---10--|


************************************

| h   Hammer-on
| p   Pull-off
| /   Slide up
| \   Slide down
| PM  Palm mute
| \\  Pick Slide

************************************    

Added On October 9th, 2017

SHARE

Comments

blog comments powered by Disqus

ADVERTISEMENT