Rancid Tabs

I Got Them Blues Again tab

1 versions

TAB

            [Verse 1]

e|-----------------|-----------------|-----------------|-----------------|
B|-----------------|-----------------|-----------------|-----------------|
G|-5-5-5-5-5-5-5-5-|-----------------|-----------------|-5-5-5-5-5-5-5-5-|
D|-5-5-5-5-5-5-5-5-|-5-5-5-5-5-5-5-5-|-5-5-5-5-5-5-5-5-|-5-5-5-5-5-5-5-5-|
A|-3-3-3-3-3-3-3-3-|-5-5-5-5-5-5-5-5-|-5-5-5-5-5-5-5-5-|-3-3-3-3-3-3-3-3-|
E|-----------------|-3-3-3-3-3-3-3-3-|-3-3-3-3-3-3-3-3-|-----------------|

e|-----------------|-----------------|-----------------|-----------------|
B|-----------------|-----------------|-----------------|-----------------|
G|-5-5-5-5-5-5-5-5-|-----------------|-5-5-5-5---------|-5-5-5-5-5-5-5-5-|
D|-5-5-5-5-5-5-5-5-|-3-3-3-3-3-3-3-3-|-5-5-5-5-5-5-5-5-|-5-5-5-5-5-5-5-5-|
A|-3-3-3-3-3-3-3-3-|-3-3-3-3-3-3-3-3-|-3-3-3-3-5-5-5-5-|-3-3-3-3-3-3-3-3-|
E|-----------------|-1-1-1-1-1-1-1-1-|---------3-3-3-3-|-----------------|


[Chorus]

e|-----------------|-----------------|-----------------|-----------------|
B|-----------------|-----------------|-----------------|-----------------|
G|-----------------|-5-5-5-5-5-5-5-5-|-----------------|-5-5-5-5-5-5-5-5-|
D|-3-3-3-3-3-3-3-3-|-5-5-5-5-5-5-5-5-|-5-5-5-5-5-5-5-5-|-5-5-5-5-5-5-5-5-| (x2)
A|-3-3-3-3-3-3-3-3-|-3-3-3-3-3-3-3-3-|-5-5-5-5-5-5-5-5-|-3-3-3-3-3-3-3-3-|
E|-1-1-1-1-1-1-1-1-|-----------------|-3-3-3-3-3-3-3-3-|-----------------|


[Verse 2]

e|-----------------|-----------------|-----------------|-----------------|
B|-----------------|-----------------|-----------------|-----------------|
G|-5-5-5-5-5-5-5-5-|-----------------|-----------------|-5-5-5-5-5-5-5-5-|
D|-5-5-5-5-5-5-5-5-|-5-5-5-5-5-5-5-5-|-5-5-5-5-5-5-5-5-|-5-5-5-5-5-5-5-5-|
A|-3-3-3-3-3-3-3-3-|-5-5-5-5-5-5-5-5-|-5-5-5-5-5-5-5-5-|-3-3-3-3-3-3-3-3-|
E|-----------------|-3-3-3-3-3-3-3-3-|-3-3-3-3-3-3-3-3-|-----------------|

e|-----------------|-----------------|-----------------|-----------------|
B|-----------------|-----------------|-----------------|-----------------|
G|-5-5-5-5-5-5-5-5-|-----------------|-5-5-5-5---------|-5-5-5-5-5-5-5-5-|
D|-5-5-5-5-5-5-5-5-|-3-3-3-3-3-3-3-3-|-5-5-5-5-5-5-5-5-|-5-5-5-5-5-5-5-5-|
A|-3-3-3-3-3-3-3-3-|-3-3-3-3-3-3-3-3-|-3-3-3-3-5-5-5-5-|-3-3-3-3-3-3-3-3-|
E|-----------------|-1-1-1-1-1-1-1-1-|---------3-3-3-3-|-----------------|


[Chorus]

e|-----------------|-----------------|-----------------|-----------------|
B|-----------------|-----------------|-----------------|-----------------|
G|-----------------|-5-5-5-5-5-5-5-5-|-----------------|-5-5-5-5-5-5-5-5-|
D|-3-3-3-3-3-3-3-3-|-5-5-5-5-5-5-5-5-|-5-5-5-5-5-5-5-5-|-5-5-5-5-5-5-5-5-| (x2)
A|-3-3-3-3-3-3-3-3-|-3-3-3-3-3-3-3-3-|-5-5-5-5-5-5-5-5-|-3-3-3-3-3-3-3-3-|
E|-1-1-1-1-1-1-1-1-|-----------------|-3-3-3-3-3-3-3-3-|-----------------|


[Solo]

Guitar 1
e|---------------3-3--3-3---3--3--3---3--3--3--3--|-3--3--3-3--3--3---3---3--3-3--3-3--|
B|----8---8------3-3--3-3---3--3--3---3--3--3--3b-|-4h-5--5-5--5--5---4h5-5--5-5--5-5--|
G|-/9---9----7-5---5b---5b--------5b--------------|------------------------------------|
D|------------------------------------------------|------------------------------------|
A|------------------------------------------------|------------------------------------|
E|------------------------------------------------|------------------------------------|

e|-/5--5--5--5------------3------------|
B|-/6--6--6--6------8--------5--5------|
G|-/5--5--5--5---/9----/4----7b---7pbr-|
D|-------------------------------------|
A|-------------------------------------|
E|-------------------------------------|

Guitar 2
e|-----------------|-----------------|-----------------|-----------------|
B|-----------------|-----------------|-----------------|-----------------|
G|-5-5-5-5-5-5-5-5-|-----------------|-----------------|-5-5-5-5-5-5-5-5-|
D|-5-5-5-5-5-5-5-5-|-5-5-5-5-5-5-5-5-|-5-5-5-5-5-5-5-5-|-5-5-5-5-5-5-5-5-|
A|-3-3-3-3-3-3-3-3-|-5-5-5-5-5-5-5-5-|-5-5-5-5-5-5-5-5-|-3-3-3-3-3-3-3-3-|
E|-----------------|-3-3-3-3-3-3-3-3-|-3-3-3-3-3-3-3-3-|-----------------|

e|-----------------|-----------------|-----------------|-----------------|
B|-----------------|-----------------|-----------------|-----------------|
G|-5-5-5-5-5-5-5-5-|-----------------|-5-5-5-5---------|-5-5-5-5-5-5-5-5-|
D|-5-5-5-5-5-5-5-5-|-3-3-3-3-3-3-3-3-|-5-5-5-5-5-5-5-5-|-5-5-5-5-5-5-5-5-|
A|-3-3-3-3-3-3-3-3-|-3-3-3-3-3-3-3-3-|-3-3-3-3-5-5-5-5-|-3-3-3-3-3-3-3-3-|
E|-----------------|-1-1-1-1-1-1-1-1-|---------3-3-3-3-|-----------------|


[Chorus]

e|-----------------|-----------------|-----------------|-----------------|
B|-----------------|-----------------|-----------------|-----------------|
G|-----------------|-5-5-5-5-5-5-5-5-|-----------------|-5-5-5-5-5-5-5-5-|
D|-3-3-3-3-3-3-3-3-|-5-5-5-5-5-5-5-5-|-5-5-5-5-5-5-5-5-|-5-5-5-5-5-5-5-5-| (x2)
A|-3-3-3-3-3-3-3-3-|-3-3-3-3-3-3-3-3-|-5-5-5-5-5-5-5-5-|-3-3-3-3-3-3-3-3-|
E|-1-1-1-1-1-1-1-1-|-----------------|-3-3-3-3-3-3-3-3-|-----------------|


[Verse 3]

e|-----------------|-----------------|-----------------|-----------------|
B|-----------------|-----------------|-----------------|-----------------|
G|-5-5-5-5-5-5-5-5-|-----------------|-----------------|-5-5-5-5-5-5-5-5-|
D|-5-5-5-5-5-5-5-5-|-5-5-5-5-5-5-5-5-|-5-5-5-5-5-5-5-5-|-5-5-5-5-5-5-5-5-|
A|-3-3-3-3-3-3-3-3-|-5-5-5-5-5-5-5-5-|-5-5-5-5-5-5-5-5-|-3-3-3-3-3-3-3-3-|
E|-----------------|-3-3-3-3-3-3-3-3-|-3-3-3-3-3-3-3-3-|-----------------|

e|-----------------|-----------------|-----------------|-----------------|
B|-----------------|-----------------|-----------------|-----------------|
G|-5-5-5-5-5-5-5-5-|-----------------|-5-5-5-5---------|-5-5-5-5-5-5-5-5-|
D|-5-5-5-5-5-5-5-5-|-3-3-3-3-3-3-3-3-|-5-5-5-5-5-5-5-5-|-5-5-5-5-5-5-5-5-|
A|-3-3-3-3-3-3-3-3-|-3-3-3-3-3-3-3-3-|-3-3-3-3-5-5-5-5-|-3-3-3-3-3-3-3-3-|
E|-----------------|-1-1-1-1-1-1-1-1-|---------3-3-3-3-|-----------------|


[Outro]

e|-----------------|-----------------|-----------------|-----------------|
B|-----------------|-----------------|-----------------|-----------------|
G|-5-5-5-5---------|-5-5-5-5-5-5-5-5-|-5-5-5-5---------|-5-5-5-5-5-5-5-5-|
D|-5-5-5-5-5-5-5-5-|-5-5-5-5-5-5-5-5-|-5-5-5-5-5-5-5-5-|-5-5-5-5-5-5-5-5-|
A|-3-3-3-3-5-5-5-5-|-3-3-3-3-3-3-3-3-|-3-3-3-3-5-5-5-5-|-3-3-3-3-3-3-3-3-|
E|---------3-3-3-3-|-----------------|---------3-3-3-3-|-----------------|

e|------------------------|
B|------------------------|
G|--5--5--5------------5--|
D|--5--5--5--5--5--5---5--|
A|--3--3--3--5--5--5---3--|
E|-----------3--3--3------|



************************************

| b   Bend
| pbr Pre-bend release
| /   Slide up

************************************    

Added On October 9th, 2017

SHARE

Comments

blog comments powered by Disqus

ADVERTISEMENT