Rancid Tabs

I Wanna Riot

4 versions

TAB

            I Wanna Riot Tab by Rancid


Intro
-----------------------
--5---------5--5-------
--7--3--5---7--7--3--5-
--7--5--5---7--7--5--5-
-----5--7---------5--7-
-----------------------

------------5--5--4--3--
--5--4--3---7--7--6--5--
--7--6--5---7--7--6--5--
--7--6--5---------------
------------------------
------------------------

Bridge
------------  ---------------
------------  ---------------
------------  ---------------
--33323--2--  --33323-54532--
-------23---  ---------------
------------  ---------------

By Kristoffer "lillen" Dezsi (dezsi_k@hotmail.com)    

Added On December 5th, 2013

SHARE

Comments

blog comments powered by Disqus

VERSIONS

ADVERTISEMENT