Rancid Tabs

Last One To Die

1 versions

TAB

            Tabbed By : J
e-mail: sk8pnk@sbcglobal.net

Tuning: Standard

                         Intro (X2)
G|---------------------------------------------------------------------------|
D|---------------------------------------------------------------------------|
A|--55555555-33333-0-1-2-------0-1-2-33333-0-3-4-----------------------------|
E|-----------------------33333-----------------------------------------------|

                         Verse (X2)
G|---------------------------------------------------------------------------|
D|---------------------------------------------------------------------------|
A|-----------33333-0-3-4-55555555-33-22--------------------------------------|
E|--33333333-----------------------------------------------------------------|

                         Chorus (X2)
G|---------------------------------------------------------------------------|
D|---------------------------------------------------------------------------|
A|--------0-1-2-33333-0-3-4-55555555-33333-----------------------------------|
E|--33333----------------------------------0-1-2-----------------------------|

                         Verse (X2)
                         Chorus (X2)
                         Intro (X2)

                         Solo (X4)
G|---------------------------------------------------------------------------|
D|---------------------------------------------------------------------------|
A|-----------33333333-55555555-33333333--------------------------------------|
E|--33333333-----------------------------------------------------------------|

                         Chorus (X2)
                         Intro (X2)
                         Chorus (X2)

                         End on G

                         That's it!

             Probably one of the easiest Rancid songs on bass.

                         Enjoy!

| /  slide up
| \  slide down
| h  hammer-on
| p  pull-off
| ~  vibrato
| +  harmonic
| x  Mute note
===============================================================================    

Added On December 16th, 2013

SHARE

Comments

blog comments powered by Disqus

ADVERTISEMENT