Rancid Tabs

Lock Step Gone

2 versions

TAB

            Lock Step Gone Tab by Rancid


Rancid
...And Out Come the Wolves
Lock Step & Gone

Intro/Verse:
---2-2-2-3------3-3-3-3-2---|
---3-3-3-0------0-0-0-0-3---|
---2-2-2-0------0-0-0-0-2---|
---0-0-0-0------0-0-0-0-0---| x8
---------2------2-2-2-2-----|
---------3------3-3-3-3-----|


Chorus:
---2-2-2---------------------|
---3-3-3-------2-2-2---------|
---2-2-2-------2-2-2---------|
---0-0-0-3-3-3-2-2-2-5-5-5---| x4
---------3-3-3-0-0-0-5-5-5---|
---------1-1-1-------3-3-3---|


Solo Guitar #1:
-------10-10-----10-10-----10-10-12-12-12-12---|
-------10-10-----10-10-----10-10-12-12-12-12---|
---12b-------12b-------12b---------------------|
-----------------------------------------------|
-----------------------------------------------|
-----------------------------------------------|

Guitar #2:
Plays Chorus

Guitar #1:
----------------------------------------------|
----------------------------------------------|
---10----10----10----10----10-12b-10----------|
------12----12----12----12--------------------|
----------------------------------------------|
----------------------------------------------|

Guitar #2:
Plays Chorus


Both Guitars:
---------------------------------------|
---------------------------------------|
---------------------5-----------------|
---3-3-3-3-3-3-3-3---5---5---7-7-7-7---| x3
---3-3-3-3-3-3-3-3---3---5---7-7-7-7---|
---1-1-1-1-1-1-1-1-------3---5-5-5-5---|


---------------------------------------|
---------------------------------------|
---3-3-3-3-3-3-3-3---5-5-5-5-5-5-5-5---|
---3-3-3-3-3-3-3-3---5-5-5-5-5-5-5-5---| x1
---1-1-1-1-1-1-1-1---3-3-3-3-3-3-3-3---|
---------------------------------------|


Order:
Intro
Verse
Chorus
Verse
Chorus
Solo
Chorus    

Added On December 16th, 2013

SHARE

Comments

blog comments powered by Disqus

VERSIONS

ADVERTISEMENT