Rancid Tabs

Loki

2 versions

TAB

            -------------------------------------------------------------------------------
			     Loki - Rancid
-------------------------------------------------------------------------------
Tabbed by: ferdia
Email: ferdiamooney@hotmail

Tuning: standard

 [INTRO]
e|-----------|
B|-----------|
G|-6~--6~--7-|
D|-6~4~6~5-7-|X2
A|-4~4~4~5-5-|
E|---2~--3---|

  [VERSE]
e|---------------------------------------------------------------------------|
B|---------------------------------------------------------------------------|
G|-77777777----------77777777--45654---77777777----------77777777---45654----|
D|-77777777-66666666-77777777-6-----64-77777777-66666666-77777777-6-45654----|
A|-55555555-66666666-55555555----------55555555-66666666-55555555-6-23432----|
E|----------44444444----------------------------44444444----------4----------|

  
e|------------------|
B|------------------|
G|-666-----666---7--|
D|-666-444-666-5-7--|X2
A|-444-444-444-5-5--|
E|-----222-----3----|
 
 [VERSE]
e|---------------------------------------------------------------------------|
B|---------------------------------------------------------------------------|
G|-77777777----------77777777--45654---77777777----------77777777---45654----|
D|-77777777-66666666-77777777-6-----64-77777777-66666666-77777777-6-45654----|
A|-55555555-66666666-55555555----------55555555-66666666-55555555-6-23432----|
E|----------44444444----------------------------44444444----------4----------|

 'Loki's playing tricks again..'
e|------------------|
B|------------------|
G|-666-----666---7--|
D|-666-444-666-5-7--|X4
A|-444-444-444-5-5--|
E|-----222-----3----|

End On
e|---|
B|---|
G|-6-|
D|-6-|
A|-4-|
E|---|    

Added On December 16th, 2013

SHARE

Comments

blog comments powered by Disqus

VERSIONS

ADVERTISEMENT