Rancid Tabs

Poison

2 versions

TAB

            This is my very first tab i love this song all this should be pretty accurate so if you 
any questions my email is mitsurugi4yahoo.com later.....

Intro/Verse
e------------------------------|
B------------------------------|
G---6--------3-----------------|Hold Each Note
D---6---3----3----4------------|
A---4---3----1----4------------|
E-------1---------2------------|
Stroke once w/Distortion

Chorus
e---------------------------------------------------|
B---------------------------------------------------|x4
G---6—x4-----------3-x4-----------------------------|
D---6------3-x4----3------4-x4----------------------|
A---4------3-------1------4-------------------------|
E----------1--------------2-------------------------|

  Outro
e-----------------------------------------------------|
B-----------------------------------------------------|
G----6----5----4----3---------------------------------|
D----6----5----4----3---------------------------------|
A----4----3----2----1---------------------------------|
E-----------------------------------------------------|    

Added On December 16th, 2013

SHARE

Comments

blog comments powered by Disqus

VERSIONS

ADVERTISEMENT