Rancid Tabs

This Is Not The End tab

1 versions

TAB

            [Intro]

e|---------------------------------|
B|---------------------------------|
G|---------------------------------|
D|-4-4-4-4-5-5-5-5-6-6-6-6-7-7-7-7-|
A|-4-4-4-4-5-5-5-5-6-6-6-6-7-7-7-7-|
E|-2-2-2-2-3-3-3-3-4-4-4-4-5-5-5-5-|


[Verse 1]

e|---------------|--------------|---------------|--------------|
B|---------------|--------------|---------------|--------------|
G|-7--7-7--7-7-7-|--------------|-7--7-7--7-7-7-|--------------|
D|-7--7-7--7-7-7-|-3--3-3--3----|-7--7-7--7-7-7-|-3--3-3--3----| (x2)
A|-5--5-5--5-5-5-|-3--3-3--3----|-5--5-5--5-5-5-|-3--3-3--3----|
E|---------------|-1--1-1--1--3-|---------------|-1--1-1--1--3-|


[Pre-Chorus]

e|---------------|---------------|---------------|---------------|
B|---------------|---------------|---------------|---------------|
G|---------------|---------------|---------------|---------------|
D|-7--7-7--7-7-7-|-6-6-6-6--5--4-|-7--7-7--7-7-7-|-6-6-6-6--5--4-|
A|-7--7-7--7-7-7-|-6-6-6-6--5--4-|-7--7-7--7-7-7-|-6-6-6-6--5--4-|
E|-5--5-5--5-5-5-|-4-4-4-4--3--2-|-5--5-5--5-5-5-|-4-4-4-4--3--2-|

e|---------------|---------------|---------------------------------|
B|---------------|---------------|---------------------------------|
G|---------------|---------------|---------------------------------|
D|-7--7-7--7-7-7-|-6-6-6-6--5--4-|-4-4-4-4-5-5-5-5-6-6-6-6-7-7-7-7-|
A|-7--7-7--7-7-7-|-6-6-6-6--5--4-|-4-4-4-4-5-5-5-5-6-6-6-6-7-7-7-7-|
E|-5--5-5--5-5-5-|-4-4-4-4--3--2-|-2-2-2-2-3-3-3-3-4-4-4-4-5-5-5-5-|


[Verse 2]

e|---------------|--------------|---------------|--------------|
B|---------------|--------------|---------------|--------------|
G|-7--7-7--7-7-7-|--------------|-7--7-7--7-7-7-|--------------|
D|-7--7-7--7-7-7-|-3--3-3--3----|-7--7-7--7-7-7-|-3--3-3--3----| (x2)
A|-5--5-5--5-5-5-|-3--3-3--3----|-5--5-5--5-5-5-|-3--3-3--3----|
E|---------------|-1--1-1--1--3-|---------------|-1--1-1--1--3-|


[Pre-Chorus]

e|---------------|---------------|---------------|---------------|
B|---------------|---------------|---------------|---------------|
G|---------------|---------------|---------------|---------------|
D|-7--7-7--7-7-7-|-6-6-6-6--5--4-|-7--7-7--7-7-7-|-6-6-6-6--5--4-|
A|-7--7-7--7-7-7-|-6-6-6-6--5--4-|-7--7-7--7-7-7-|-6-6-6-6--5--4-|
E|-5--5-5--5-5-5-|-4-4-4-4--3--2-|-5--5-5--5-5-5-|-4-4-4-4--3--2-|

e|---------------|---------------|---------------------------------|
B|---------------|---------------|---------------------------------|
G|---------------|---------------|---------------------------------|
D|-7--7-7--7-7-7-|-6-6-6-6--5--4-|-4-4-4-4-5-5-5-5-6-6-6-6-7-7-7-7-|
A|-7--7-7--7-7-7-|-6-6-6-6--5--4-|-4-4-4-4-5-5-5-5-6-6-6-6-7-7-7-7-|
E|-5--5-5--5-5-5-|-4-4-4-4--3--2-|-2-2-2-2-3-3-3-3-4-4-4-4-5-5-5-5-|


[Chorus]

Guitar 1
e|---------------|--------------|---------------|--------------|
B|---------------|--------------|---------------|--------------|
G|-7--7-7--7-7-7-|--------------|-7--7-7--7-7-7-|--------------|
D|-7--7-7--7-7-7-|-3--3-3--3----|-7--7-7--7-7-7-|-3--3-3--3----| (x2)
A|-5--5-5--5-5-5-|-3--3-3--3----|-5--5-5--5-5-5-|-3--3-3--3----|
E|---------------|-1--1-1--1--3-|---------------|-1--1-1--1--3-|

Guitar 2
e|---------------------|---------------------|
B|-15-----15-----------|---------------------|
G|-12b14------12pbr14--|---------------------|
D|---------------------|---------------------| (x2)
A|---------------------|---------------------|
E|---------------------|---------------------|



[Bridge]

e|---------------|---------------|---------------|---------------|
B|---------------|---------------|---------------|---------------|
G|---------------|---------------|---------------|---------------|
D|-7--7-7--7-7-7-|-6-6-6-6--5--4-|-7--7-7--7-7-7-|-6-6-6-6--5--4-|
A|-7--7-7--7-7-7-|-6-6-6-6--5--4-|-7--7-7--7-7-7-|-6-6-6-6--5--4-|
E|-5--5-5--5-5-5-|-4-4-4-4--3--2-|-5--5-5--5-5-5-|-4-4-4-4--3--2-|

e|---------------|---------------|---------------------------------|
B|---------------|---------------|---------------------------------|
G|---------------|---------------|---------------------------------|
D|-7--7-7--7-7-7-|-6-6-6-6--5--4-|-4-4-4-4-5-5-5-5-6-6-6-6-7-7-7-7-|
A|-7--7-7--7-7-7-|-6-6-6-6--5--4-|-4-4-4-4-5-5-5-5-6-6-6-6-7-7-7-7-|
E|-5--5-5--5-5-5-|-4-4-4-4--3--2-|-2-2-2-2-3-3-3-3-4-4-4-4-5-5-5-5-|


[Verse 3]

e|---------------|--------------|---------------|--------------|
B|---------------|--------------|---------------|--------------|
G|-7--7-7--7-7-7-|--------------|-7--7-7--7-7-7-|--------------|
D|-7--7-7--7-7-7-|-3--3-3--3----|-7--7-7--7-7-7-|-3--3-3--3----| (x2)
A|-5--5-5--5-5-5-|-3--3-3--3----|-5--5-5--5-5-5-|-3--3-3--3----|
E|---------------|-1--1-1--1--3-|---------------|-1--1-1--1--3-|
        PM              PM              PM             PM

e|---------------|--------------|---------------|--------------|
B|---------------|--------------|---------------|--------------|
G|-7--7-7--7-7-7-|--------------|-7--7-7--7-7-7-|--------------|
D|-7--7-7--7-7-7-|-3--3-3--3----|-7--7-7--7-7-7-|-3--3-3--3----| (x2)
A|-5--5-5--5-5-5-|-3--3-3--3----|-5--5-5--5-5-5-|-3--3-3--3----|
E|---------------|-1--1-1--1--3-|---------------|-1--1-1--1--3-|


[Pre-Chorus]

e|---------------|---------------|---------------|---------------|
B|---------------|---------------|---------------|---------------|
G|---------------|---------------|---------------|---------------|
D|-7--7-7--7-7-7-|-6-6-6-6--5--4-|-7--7-7--7-7-7-|-6-6-6-6--5--4-|
A|-7--7-7--7-7-7-|-6-6-6-6--5--4-|-7--7-7--7-7-7-|-6-6-6-6--5--4-|
E|-5--5-5--5-5-5-|-4-4-4-4--3--2-|-5--5-5--5-5-5-|-4-4-4-4--3--2-|

e|---------------|---------------|---------------------------------|
B|---------------|---------------|---------------------------------|
G|---------------|---------------|---------------------------------|
D|-7--7-7--7-7-7-|-6-6-6-6--5--4-|-4-4-4-4-5-5-5-5-6-6-6-6-7-7-7-7-|
A|-7--7-7--7-7-7-|-6-6-6-6--5--4-|-4-4-4-4-5-5-5-5-6-6-6-6-7-7-7-7-|
E|-5--5-5--5-5-5-|-4-4-4-4--3--2-|-2-2-2-2-3-3-3-3-4-4-4-4-5-5-5-5-|


[Chorus]

Guitar 1
e|---------------|--------------|---------------|--------------|
B|---------------|--------------|---------------|--------------|
G|-7--7-7--7-7-7-|--------------|-7--7-7--7-7-7-|--------------|
D|-7--7-7--7-7-7-|-3--3-3--3----|-7--7-7--7-7-7-|-3--3-3--3----| (x2)
A|-5--5-5--5-5-5-|-3--3-3--3----|-5--5-5--5-5-5-|-3--3-3--3----|
E|---------------|-1--1-1--1--3-|---------------|-1--1-1--1--3-|

Guitar 2
e|---------------------|---------------------|
B|-15-----15-----------|---------------------|
G|-12b14------12pbr14--|---------------------|
D|---------------------|---------------------| (x2)
A|---------------------|---------------------|
E|---------------------|---------------------|


[Solo]

e|-----------------|-----------------|-----------------|
B|-----------------|-----------------|-----------------|
G|-----------------|-----------------|-----------------|
D|--2--4-4--5-5--6-|--2--4-4--5-5--6-|--2--4-4--5-5--6-|
A|--2--4-4--5-5--6-|--2--4-4--5-5--6-|--2--4-4--5-5--6-|
E|--0--2-2--3-3--4-|--0--2-2--3-3--4-|--0--2-2--3-3--4-|

e|-------------|----------------|-------------|-----------------|
B|-------------|----------------|-------------|-----------------|
G|-------------|----------------|-------------|-----------------|
D|--6-6-5-5-4--|-4-4-4-4-5-5-6--|--6-6-5-5-4--|--4--5--6--7--2--|
A|--6-6-5-5-4--|-4-4-4-4-5-5-6--|--6-6-5-5-4--|--4--5--6--7--2--|
E|--4-4-3-3-2--|-2-2-2-2-3-3-4--|--4-4-3-3-2--|--2--3--4--5--0--|





************************************

| b    Bend
| pbr  Pre-bend release
| PM   Palm mute


************************************    

Added On October 12th, 2017

SHARE

Comments

blog comments powered by Disqus

ADVERTISEMENT