Rancid Tabs

Wrongful Supsicion

1 versions

TAB

            Wrongful Supsicion is play in G,D,A,E tuneing


~ is let ring

intro
|------------------------|
|------------------------|
|------------------------|
|--3~-6~-3~-6~-3~-6~-3~~-|
Verse/Main Riff
|-----------------------|
|-----------------------|
|-----------------------|
|--33--33--55-0543-33---|

bridge
  X's 1         X's 4
|-------|------------------|
|-------|------------------|
|-------|------------------|
|--33---|--55-0543-33------|


|----------------------|
|----------------------|
|----------------------|
|--33-55-33-77---------|


|------------------------|
|------------------------|
|------------------------|
|--33-55-33-77-33-55-3~--|

end
|-------------|
|-------------|
|-------------|
|--3--6--7----|    

Added On December 16th, 2013

SHARE

Comments

blog comments powered by Disqus

ADVERTISEMENT