Rarity Tabs

Orchid

1 versions

TAB

            [Intro]
D#|-----------------------------------------------------|----------------------------------------------------|
A#|-----------------------------------------------------|----------------------------------------------------|
F#|4-4------4-----1-1------1-----4------4-----1--1------|----------------------------------------------------|
C#|2-2------2-----2-2------2-----2------2-----2--2--4-4-|2-----------2-2-----------2-4-----------4-4---------|
G#|0-0--0-0-0--0--0-0--0-0-0--0--0--0-0-0--0--0--0--0-0-|2--2-2-2-2--2-2--2-2-2-2--2-4--4-4-4-4--4-4--4-4-2-2|
D#|-----------------------------------------------------|0--0-0-0-0--0-0--0-0-0-0--0-2--2-2-2-2--2-2--2-2-0-0|
(I don't wanna stay another day...)

D#|-----------------------------------------------------|----------------------------------------------------|
A#|-----------------------------------------------------|----------------------------------------------------|
F#|4-4------4-----1-1------1-----4------4-----1--1------|----------------------------------------------------|
C#|2-2------2-----2-2------2-----2------2-----2--2--4-4-|2-----------2-2-----------2-4-----------4-4---------|
G#|0-0--0-0-0--0--0-0--0-0-0--0--0--0-0-0--0--0--0--0-0-|2--2-2-2-2--2-2--2-2-2-2--2-4--4-4-4-4--4-4--4-4-2-2|
D#|-----------------------------------------------------|0--0-0-0-0--0-0--0-0-0-0--0-2--2-2-2-2--2-2--2-2-0-0|

(Guitar 2)
D#|--7--7-7-7--7/9------------------|--7--7-7-7--7/9---------------------------|
A#|--x--x-x-x--x/x----7--7-7-7-7-7--|--x--x-x-x--x-x---9-9-4-4-----------------|
F#|--4--4-4-4--4/6----x--x-x-x-x-x--|--4--4-4-4--4/6---x-x-x-x-----------------|
C#|-------------------4--4-4-4-4-4--|------------------6-6-4-4-----------------|
G#|---------------------------------|------------------------------------------|
D#|---------------------------------|------------------------------------------|

(You keep your head..)

[Pre-Chorus]
D#|----------------------------------|---------------------------------------------|
A#|----------------------------------|---------------------------------------------|
F#|--------8-----------------8-------|---------1---------------------1-------------|
C#|----6------6----6-----6-----6---6-|----2--------2-----2------2--------2---------|
G#|-4----4------4-----4----4-----4---|-0-----0--------0------0-----0--------0------|
D#|----------------------------------|---------------------------------------------|

D#|----------------------------------|---------------------------------------------|
A#|----------------------------------|---------------------------------------------|
F#|--------8-----------------8-------|---------1---------------------1\------------|
C#|----6------6----6-----6-----6---6-|----2--------2-----2------2------------------|
G#|-4----4------4-----4----4-----4---|-0-----0--------0------0-----0---------------|
D#|----------------------------------|---------------------------------------------|

(I see your hands...)

[Chorus]
D#|--------------------|-------------------------------------------------------|
A#|--------------------|-------------------------------------------------------|
F#|--------------------|-------------------------------------------------------|
C#|-6-x-------6-----6--|----6-----6----6-----6---------------------------------|
G#|-4-x--4-x--7-----7--|----7-----7----7-----7---------------------------------|
D#|------2-x----5-5----|--5---5-5----5---5-5----5-5-5--------------------------|

(I hope you never ...)

D#|--------------------|-------------------------------------------------------|
A#|--------------------|-------------------------------------------------------|
F#|--------------------|-------------------------------------------------------|
C#|-6-x-------6-----6--|----6-----6----6-----6---------------------------------|
G#|-4-x--4-x--7-----7--|----7-----7----7-----7---x-x-x-x-----------------------|
D#|------2-x----5-5----|--5---5-5----5---5-5-----x-x-x-x-----------------------|

D#|--------------------|-------------------------------------------------------|
A#|--------------------|-------------------------------------------------------|
F#|--------------------|-------------------------------------------------------|
C#|-6-x-------6-----6--|----6-----6----6-----6---------------------------------|
G#|-4-x--4-x--7-----7--|----7-----7----7-----7---------------------------------|
D#|------2-x----5-5----|--5---5-5----5---5-5----5-5-5--------------------------|

D#|--------------------|-------------------------------------------------------|
A#|--------------------|-------------------------------------------------------|
F#|--------------------|-------------------------------------------------------|
C#|-6-x-------6-----6--|----6-----6----6-----6---------------------------------|
G#|-4-x--4-x--7-----7--|----7-----7----7-----7---------------------------------|
D#|------2-x----5-5----|--5---5-5----5---5-5----5-5-5--------------------------|

(Guitar 2)
D#|----------------------------|-----------------------------------------------|
A#|-5-x---4-x-----10-10---9-9--|---10-10-10--9-9---10-10-10--9-9---------------|
F#|-x-x---x-x-----x--x----x-x--|---x--x--x---x-x---x--x--x---x-x---------------|
C#|-2-x---1-x-----7--7----6-6--|---7--7--7---6-6---7--7--7---6-6---------------|
G#|----------------------------|-----------------------------------------------|
D#|----------------------------|-----------------------------------------------|

(The calming thought...)
D#|----------------------------|--------------------------------------------------|
A#|-5-x---4-x-----10-10---9-9--|---10-10-10--9-9---10-10-10--9-9-----10-10-10-----|
F#|-x-x---x-x-----x--x----x-x--|---x--x--x---x-x---x--x--x---x-x-----x--x--x------|
C#|-2-x---1-x-----7--7----6-6--|---7--7--7---6-6---7--7--7---6-6-----7--7--7------|
G#|----------------------------|--------------------------------------------------|
D#|----------------------------|--------------------------------------------------|

[Verse 2]
D#|------------|-----------------------------|---------------------------------------|
A#|------------|-----------------------------|---------------------------------------|
F#|---------8~-|---------4-------1------4----|-----------4-------1-------------------|
C#|-----6------|-----2------2------2-------2-|------2-------2------2------6--4-------|
G#|--4----4----|--0----0-------0------0------|-0-0-----0-------0-----0----6--4-------|
D#|------------|-----------------------------|----------------------------4--2-------|

D#|----------------------------|-----------------------------------------------|
A#|----------------------------|-----------------------------------------------|
F#|----------------------------|-----------------------------------------------|
C#|--2-2---------2--2-2--------|----2--4-4---------4---------------------------|
G#|--2-2--2-2-2--2--2-2--2-2-2-|----2--4-4--4-4-4--4--4-4--2-2-----------------|
D#|--0-0--0-0-0--0--0-0--0-0-0-|----0--2-2--2-2-2--2--2-2--0-0-----------------|

D#|------------------------------|----------------------------------------|
A#|------------------------------|----------------------------------------|
F#|---------4-------1------4-----|-----------4-------1--------------------|
C#|-----2------2------2-------2--|------2-------2------2------6--4--2-----|
G#|---0----0-------0------0------|-0-0-----0-------0-----0----6--4--2-----|
D#|------------------------------|----------------------------4--2--0-----|

[Pre-Chorus 2]
D#|------------------------------|---------------------------------------------|
A#|------------------------------|---------------------------------------------|
F#|-------8--------------8-------|--------1------------------------------------|
C#|---6-----6---6----6-----6---6-|----2------2----2----4-4---------------------|
G#|-4---4-----4----4---4-----4---|-0----0------0-------4-4--x-x----------------|
D#|------------------------------|---------------------2-2--x-x----------------|

[Chorus 2]
D#|--------------------|-------------------------------------------------------|
A#|--------------------|-------------------------------------------------------|
F#|--------------------|-------------------------------------------------------|
C#|-6-x-------6-----6--|----6-----6----6-----6---------------------------------|
G#|-4-x--4-x--7-----7--|----7-----7----7-----7---------------------------------|
D#|------2-x----5-5----|--5---5-5----5---5-5----5-5-5--------------------------|

(I hope you never ...)

D#|--------------------|-------------------------------------------------------|
A#|--------------------|-------------------------------------------------------|
F#|--------------------|-------------------------------------------------------|
C#|-6-x-------6-----6--|----6-----6----6-----6---------------------------------|
G#|-4-x--4-x--7-----7--|----7-----7----7-----7---x-x-x-x-----------------------|
D#|------2-x----5-5----|--5---5-5----5---5-5-----x-x-x-x-----------------------|

D#|--------------------|-------------------------------------------------------|
A#|--------------------|-------------------------------------------------------|
F#|--------------------|-------------------------------------------------------|
C#|-6-x-------6-----6--|----6-----6----6-----6---------------------------------|
G#|-4-x--4-x--7-----7--|----7-----7----7-----7---------------------------------|
D#|------2-x----5-5----|--5---5-5----5---5-5----5-5-5--------------------------|

D#|--------------------|-------------------------------------------------------|
A#|--------------------|-------------------------------------------------------|
F#|--------------------|-------------------------------------------------------|
C#|-6-x-------6-----6--|----6-----6----6-----6---------------------------------|
G#|-4-x--4-x--7-----7--|----7-----7----7-----7---------------------------------|
D#|------2-x----5-5----|--5---5-5----5---5-5----5-5-5--------------------------|

(Guitar 2)
D#|----------------------------|-----------------------------------------------|
A#|-5-x---4-x-----10-10---9-9--|---10-10-10--9-9---10-10-10--9-9---------------|
F#|-x-x---x-x-----x--x----x-x--|---x--x--x---x-x---x--x--x---x-x---------------|
C#|-2-x---1-x-----7--7----6-6--|---7--7--7---6-6---7--7--7---6-6---------------|
G#|----------------------------|-----------------------------------------------|
D#|----------------------------|-----------------------------------------------|

( The calming thought...)

D#|----------------------------|--------------------------------------------------|
A#|-5-x---4-x-----10-10---9-9--|---10-10-10--9-9---10-10-10--9-9-----10-10-10-----|
F#|-x-x---x-x-----x--x----x-x--|---x--x--x---x-x---x--x--x---x-x-----x--x--x------|
C#|-2-x---1-x-----7--7----6-6--|---7--7--7---6-6---7--7--7---6-6-----7--7--7------|
G#|----------------------------|--------------------------------------------------|
D#|----------------------------|--------------------------------------------------|

[Outro]
D#|-------------------------------------------------------------------------------------|
A#|-------------------------------------------------------------------------------------|
F#|--------8--------------------8--------------------1-----------------1h2p1------------|
C#|----6------6----6-----6---------6-----6-|-----2-----2---2------2-----------2----2----|
G#|-4----4------4-----4-------4-------4----|---0---0-----0------0---0------------0------|
D#|-------------------------------------------------------------------------------------|

D#|----------------------------------------|--------------------------------|
A#|----------------------------------------|--------------------------------|
F#|--------8--------------------8----------|--------------1~----------------|
C#|----6------6----6-----6---------6-----6-|------2-------2~----------------|
G#|-4----4------4-----4-------4-------4----|---0-----0----0~----------------|
D#|----------------------------------------|--------------------------------|

D#|-------------------------------------|---------------------------------------|
A#|-------------------------------------|---------------------------------------|
F#|-8~--8-8---8-8-8-8--8-8-8-8---8/11---|---------------------------------------|
C#|-6~--6-6---6-6-6-6--6-6-6-6-- 6/9----|--6~---6-6--6-6-6-6--6-6-6-6--6-6-6----|
G#|-4~--4-4---4-4-4-4--4-4-4-4-- 4/7----|--4~---4-4--4-4-4-4--4-4-4-4--4-4-4----|
D#|-------------------------------------|--5~---5-5--5-5-5-5--4-4-4-4--4-4-4----|

(I'm so sorry that your mind...)


************************************

| x   Dead note
| h   Hammer-on
| p   Pull-off
| /   Slide up
| \   Slide down
| ~   Vibrato

************************************    

Added On July 1st, 2017

SHARE

Comments

blog comments powered by Disqus

ADVERTISEMENT