Razorback Tabs

Wakasan

1 versions

TAB

            Wakasan Tab by Razorback


"Wakasan" by Razorback
transcribed by: freongang

intro:
e--------------------------------------------------------|
b--------------------------------------------------------|
g--^-------^---------^-------^--------^-------^----------|
d-3-5-5-5-5-6-3-5---3-5-5-5-5-6-3-5--6-7-4---5-6-3-5-----|
a------------------------------------------5-------------|
e--------------------------------------------------------|

e--------------------|
b--------------------|
g--^-------^---------|
d-3-5-5-5-2-3--1-0---|
a--------------------|
e--------------------|

ang isang anak na ulira.....
e-------------|
b------------------------------------------------------|
g-9-9-9--7-7-7--6-6-6--4-4-4--7-7-7--10-10-10-9--------|
d------------------------------------------------------|
a-7-7-7--5-5-5--4-4-4--2-2-2--5-5-5--8--8--8--7--------|
e------------------------------------------------------|

sa dulo ng mundo........
e-----------------------------------|
b-----------------------------------|
g---5-5-5-5-------------------------|
d---5-5-5-5-3-3-3-3-7-7-7-7-5-5-5-5-|
a---3-3-3-3-3-3-3-3-7-7-7-7-5-5-5-5-|
e-----------1-1-1-1-5-5-5-5-3-3-3-3-|

naw na na........
e------------------|
b------------------|
g------------------|
d-5-5---^------5-5-|
a-5-5--3-4-1---5-5-|
e-3-3--------4-3-3-|


visit me at: freongang_81@yahoo.com
             freongang_08@yahoo.com    

Added On December 5th, 2013

SHARE

Comments

blog comments powered by Disqus

ADVERTISEMENT