Rebelution Tabs

Calling Me Out

1 versions

TAB

            -----------------------------------------------------------------
Calling Me Out - Rebelution
-----------------------------------------------------------------
Tabbed by: Brian Zucker
Email: bnzucker@comcast.net
Tuning: Standard
Intro/Ending
e|---------------------------------------------------------------|
B|---------------------------------------------------------------|
G|---5555--7777--8888--1010101010--12----12-10-8-7---------------|
D|---------------------------------------------------------------|
A|---------------------------------------------------------------|
E|---------------------------------------------------------------|

e|---------------------------------------------------------------|
B|---------------------------------------------------------------|
G|---5555--7777--8888--1010101010--12----------------------------|
D|---------------------------------------------------------------|
A|---------------------------------------------------------------|
E|---------------------------------------------------------------|

horns-chorus
e|---------------------------------------------------------------|
B|----6-8--------------------------------------------------------|
G|--7-----8-7--5------3----5-7-5-3-------------------------------|
D|-----------------5---------------5-----------------------------|
A|---------------------------------------------------------------|
E|---------------------------------------------------------------|

horns-chorus (cont.)
e|---------------------------------------------------------------|
B|----6-8--------------------------------------------------------|
G|--7-----8-7--5------3----5h7p5-3-------------------------------|
D|-----------------5---------------7-5---------------------------|
A|---------------------------------------------------------------|
E|---------------------------------------------------------------|

chords (whole song)
   Cm              Gm
e|--3---3---3---3---3---3---3---3--------------------------------|
B|--4---4---4---4---3---3---3---3--------------------------------|
G|--5---5---5---5---3---3---3---3--------------------------------|
D|--5---5---5---5---5---5---5---5--------------------------------|
A|--3---3---3---3---5---5---5---5--------------------------------|
E|--x---x---x---x---3---3---3---3--------------------------------|

horns-verse
e|---------------------------------------------------------------|
B|---------------------------------------------------------------|
G|---3-5s7-5-3--------3-5s7-5-3-5--------------------------------|
D|-------------5-------------------------------------------------|
A|---------------------------------------------------------------|
E|---------------------------------------------------------------|



guitar riff-verse/ending
e|---------------------------------------------------------------|
B|----------8--8-------------------------------------------------|
G|----3-5-7-10-8-------------------------------------------------|
D|----5-7-8------------------------------------------------------|
A|---------------------------------------------------------------|
E|---------------------------------------------------------------|

guitar riff-bridge (whoa-oh-oh part)/ending
e|---------------------------------------------------------------|
B|--4--4-3------------3---------4--4-3--------------3------------|
G|---------5------3-5---3--------------5-3------3-5---3----------|
D|--------------5-----------------------------5------------------|
A|---------------------------------------------------------------|
E|---------------------------------------------------------------|

(Combine the two parts above for the very end of the song... listen for further help)


| s  slide
| h  hammer-on
| p  pull-off
| ~  vibrato
| +  harmonic
| x  Mute note
Hey guys... every part of the song is tabbed here, you might have to look back at the 
tabs because certain parts are played more than one time during the song.    

Added On December 16th, 2013

SHARE

Comments

blog comments powered by Disqus

ADVERTISEMENT