Rebelution Tabs

From The Window

1 versions

TAB

            -----------------------------------------------------------------
From The Window - Rebelution
-----------------------------------------------------------------
Tabbed by: Brian Zucker
Email: bnzucker@comcast.net
Tuning: Standard
e|---------------------------------------------------------------|
B|---------------------------------------------------------------|
G|---------------------------------------------------------------|
D|---------------------------------------------------------------|
A|-----3-5-3-------------5-5-------------------------------------|
E|-----------6-5-3-----3-----------------------------------------|x1

e|---------------------------------------------------------------|
B|---------------------------------------------------------------|
G|---------------------------------------------------------------|
D|---------------------------------------------------------------|
A|--------5------3----3-5-3-----------5-5------------------------|
E|-3--3-3---6--6------------6-5-3---3----------------------------|x4
    Gm      Cm      Dm      Gm
e|---3---3---3---3---5---5---3---3-------------------------------|
B|---3---3---4---4---6---6---3---3-------------------------------|
G|---3---3---5---5---7---7---3---3-------------------------------|
D|---5---5---5---5---7---7---5---5-------------------------------|
A|---5---5---3---3---5---5---5---5-------------------------------|
E|---3---3---x---x---x---x---3---3-------------------------------|x4
    D#       Dm        Gm    
e|--------------------------3------------------------------------|
B|-------8---------6----------3----------------------------------|
G|--------8---------7----------3---------------------------------|
D|---------8---------7----------5--------------------------------|
A|---------------------------------------------------------------|
E|--6--6------5--5------3--3--------3--5--6----------------------|x2
   D#        Dm      
e|---------------------------------------------------------------|
B|-------8---------6---------------------------------------------|
G|--------8---------7-----------8---7---5---------7--------------|
D|---------8---------7--5---3---8---7---5---------7--------------|
A|----------------------5---3---6---5---3---------5--------------|
E|--6--6------5--5------3---1------------------------------------|x1

e|---------------------------------------------------------------|
B|---------------------------------------------------------------|
G|---------------------------------------------------------------|
D|--5-5-----3-5-5------------------------------------------------|
A|--5-5-----3-5-5------------------------------------------------|
E|--3-3-----1-3-3--3s15------------------------------------------|x1
    Gm      Cm      Dm      Gm
e|---3---3---3---3---5---5---3---3-------------------------------|
B|---3---3---4---4---6---6---3---3-------------------------------|
G|---3---3---5---5---7---7---3---3-------------------------------|
D|---5---5---5---5---7---7---5---5-------------------------------|
A|---5---5---3---3---5---5---5---5-------------------------------|
E|---3---3---x---x---x---x---3---3-------------------------------|x1
    Gm      Cm      Dm
e|---3---3---3---3---5---5---------------------------------------|
B|---3---3---4---4---6---6---------------------------------------|
G|---3---3---5---5---7---7---------------------------------------|
D|---5---5---5---5---7---7---------------------------------------|
A|---5---5---3---3---5---5-----------5---------------------------|
E|---3---3---x---x---x---x---3---5-------------------------------|x1
    Gm      Cm      Dm      Gm
e|---3---3---3---3---5---5---3---3-------------------------------|
B|---3---3---4---4---6---6---3---3-------------------------------|
G|---3---3---5---5---7---7---3---3-------------------------------|
D|---5---5---5---5---7---7---5---5-------------------------------|
A|---5---5---3---3---5---5---5---5-------------------------------|
E|---3---3---x---x---x---x---3---3-------------------------------|x2

e|--------------------888---10----------8------------------------|
B|--888-101010-111111-----11---------11---11-10-8----------------|
G|---------------------------------------------------------------|
D|---------------------------------------------------------------|
A|---------------------------------------------------------------|
E|---------------------------------------------------------------|x1

e|--------------------888---10~----------------------------------|
B|--888-101010-111111-----11-------------------------------------|
G|---------------------------------------------------------------|
D|---------------------------------------------------------------|
A|---------------------------------------------------------------|
E|---------------------------------------------------------------|x1

e|--------------------888---10----------8-------10---------------|
B|--888-101010-111111-----11---------11---11-10------------------|
G|---------------------------------------------------------------|
D|---------------------------------------------------------------|
A|---------------------------------------------------------------|
E|---------------------------------------------------------------|x1

e|--------------------888---10~----------------------------------|
B|--888-101010-111111-----11-------------------------------------|
G|---------------------------------------------------------------|
D|---------------------------------------------------------------|
A|---------------------------------------------------------------|
E|---------------------------------------------------------------|x1
    Gm      Cm      Dm      Gm
e|---3---3---3---3---5---5---3---3-------------------------------|
B|---3---3---4---4---6---6---3---3-------------------------------|
G|---3---3---5---5---7---7---3---3-------------------------------|
D|---5---5---5---5---7---7---5---5-------------------------------|
A|---5---5---3---3---5---5---5---5-------------------------------|
E|---3---3---x---x---x---x---3---3-------------------------------|x4
   D#        Dm        Gm
e|--------------------------3------------------------------------|
B|-------8---------6----------3----------------------------------|
G|--------8---------7----------3---------------------------------|
D|---------8---------7----------5--------------------------------|
A|-------------------------------------------6-------------------|
E|--6--6------5--5------3--3--------3--5--6----------------------|x2
   D#        Dm     
e|---------------------------------------------------------------|
B|-------8---------6---------------------------------------------|
G|--------8---------7-----------8---7---5---------7--------------|
D|---------8---------7--5---3---8---7---5---------7--------------|
A|----------------------5---3---6---5---3---------5--------------|
E|--6--6------5--5------3---1------------------------------------|x1

e|---------------------------------------------------------------|
B|---------------------------------------------------------------|
G|---------------------------------------------------------------|
D|--5-5-----3-5-5------------------------------------------------|
A|--5-5-----3-5-5------------------------------------------------|
E|--3-3-----1-3-3--3s15------------------------------------------|x1
    Gm      Cm      Dm      Gm
e|---3---3---3---3---5---5---3---3-------------------------------|
B|---3---3---4---4---6---6---3---3-------------------------------|
G|---3---3---5---5---7---7---3---3-------------------------------|
D|---5---5---5---5---7---7---5---5-------------------------------|
A|---5---5---3---3---5---5---5---5-------------------------------|
E|---3---3---x---x---x---x---3---3-------------------------------|x1
    Gm      Cm      Dm
e|---3---3---3---3---5---5---------------------------------------|
B|---3---3---4---4---6---6---------------------------------------|
G|---3---3---5---5---7---7---------------------------------------|
D|---5---5---5---5---7---7---------------------------------------|
A|---5---5---3---3---5---5-----------5---------------------------|
E|---3---3---x---x---x---x---3---5-------------------------------|x1
    Gm      Cm      Dm      Gm
e|---3---3---3---3---5---5---3---3-------------------------------|
B|---3---3---4---4---6---6---3---3-------------------------------|
G|---3---3---5---5---7---7---3---3-------------------------------|
D|---5---5---5---5---7---7---5---5-------------------------------|
A|---5---5---3---3---5---5---5---5-------------------------------|
E|---3---3---x---x---x---x---3---3-------------------------------|x2

e|---------------------------------------------------------------|
B|---------------------------------------------------------------|
G|---------------------------------------------------------------|
D|---------------------------------------------------------------|
A|--------5------3----3-5-3-----------5-5------------------------|
E|-3--3-3---6--6------------6-5-3---3----------------------------|x4
    Gm      Cm      Dm      Gm
e|---3---3---3---3---5---5---3---3-------------------------------|
B|---3---3---4---4---6---6---3---3-------------------------------|play really 
G|---3---3---5---5---7---7---3---3-------------------------------|slow
D|---5---5---5---5---7---7---5---5-------------------------------|
A|---5---5---3---3---5---5---5---5-------------------------------|
E|---3---3---x---x---x---x---3---3-------------------------------|x4
Thats it! Enjoy!
-Brian
| s  slide
| h  hammer-on
| p  pull-off
| ~  vibrato
| +  harmonic
| x  Mute note    

Added On December 16th, 2013

SHARE

Comments

blog comments powered by Disqus

ADVERTISEMENT