Reel Big Fish Tabs

Your Guts I Hate Em

2 versions

TAB

            ----------------------------------------------------------------------------
	            Reel Big Fish - Your Guts (I Hate 'Em)
----------------------------------------------------------------------------
Tabbed by: Murray Urquhart
Email: muzztheguitarman@hotmail.co.uk

Tuning: Standard (EADGBE)

This Is a good and easy song to play. Email any mistakes.

Intro (x2) :
E|----------1-11----3-33-----------3--1-11-----3-33-----|
A|-3-33---------3-0-----5-2--3-3-0---------3-0------5-2-|
D|-----2-5----------------------------------------------|
G|------------------------------------------------------|
B|------------------------------------------------------|
E|------------------------------------------------------|

Then Horns come in (Play this with a ska rythm) (x3):
   
   C               F       G
E|--------------------------------|
A|-3-x-3-x-3-x-3-x-3-x-3-/-5-x-3--|
D|-5-x-5-x-5-x-5-x-3-x-2-/-5-x-3--| 
G|-5-x-5-x-5-x-5-x-2-x-1-/-4-x-4--|
B|-5-x-5-x-5-x-5-x-1-x-1-/-3-x-3--|
E|-3-x-3-x-3-x-3-x-1-x-1-/-3-x-3--|

Then:
   C     F G  C
E|--------------------------|
A|-33--3-3-55-33------------|
D|-55--5-3-55-55------------|
G|-55--5-2-44-55------------|
B|-55--5-1-33-55------------|
E|-55--3-1-33-33------------|

Chorus (x8):

   C               F       G
E|-------------------------------------------------------|
A|-3-x-3-x-3-x-3-x-3-x-3-/-5-x-5-------------------------|
D|-5-x-5-x-5-x-5-x-3-x-3-/-5-x-5-------------------------|
G|-5-x-5-x-5-x-5-x-2-x-2-/-4-x-4-------------------------|
B|-5-x-5-x-5-x-5-x-1-x-1-/-3-x-3-------------------------|
E|-3-x-3-x-5-x-3-x-1-x-1-/-3-x-3-------------------------|

   
Interlude 1 (x3):

   F       Am  G
E|-1-1-1-1-5-5-3-3-----|
A|-3-3-3-3-7-7-5-5-----|
D|-3-3-3-3-7-7-5-5-----|
G|-2-2-2-2-5-5-3-3-----|
B|-1-1-1-1-5-5-3-3-----|
E|-1-1-1-1-5-5-3-3-----|


Pre-Chorus:

   F       G
E|------------------|
A|-3-------5--------|
D|-3-------5--------|
G|-2-------4--------|
B|-1-------3--------|
E|-1-------3--------|

There is then another chorus that is just half the length of the first one. 

At the end of the verse, play the last two notes (F and G) once with ditortion and let them ring. 

Then comes Interlude 2.

Interlude 2 (Distortion (Palm Muted) (x2):

   C       C/B     A       F   G
e|-----------------5555555511113333----|
B|-33333333222222227777777733335555----|
G|-55555555555555557777777733335555----|
D|-5555555555555555--------------------|
A|-------------------------------------|
E|-------------------------------------|

End on:

   C
E|---------|
A|-3-------|
D|-5-------|
G|-5-------|
B|---------|
E|---------|
| /  slide up
| \  slide down
| h  hammer-on
| p  pull-off
| ~  vibrato
| +  harmonic
| x  Mute note
============================================================================    

Added On December 16th, 2013

SHARE

Comments

blog comments powered by Disqus

VERSIONS

ADVERTISEMENT